Oops, an error
Loading. Please wait.

Bennie And The Jets Bass Tab

version 1
version 1

Whole song

Interactive

13,125 views 27 this week
1 commentread comment
1 2 3 4 5
accurate
x 6
add to favorites
launch autoscroll
font size
0
reset
guitar tuner
Tab Pro tools
  • play this tab
  • loop segment
  • change instrument
  • show fretboard
  • metronome
×
Best way to learn
"Bennie And The Jets"
Autoscroll
slow
fast
+/-
esc
set tempo
stop
Contributor
Difficulty
novice
BENNIE AND THE JETS - Elton John
Tabbed By: CSC      Tuning: EADG

0:12
  x   x   x   x    x   x   x   x    x   x   x   x    x   x   x   x
G|----------------|----------------|----------------|----------------|
D|----------------|----------------|----------------|----------------|
A|----------------|----------------|----------------|----------------|
E|3---3---3---3---|3---3---3---32--|1---1---1---1---|1---1---1---13--|
0:27
  x   x   x   x    x   x   x   x    x   x   x   x    x   x   x   x
G|----------------|----------------|----------------|----------------|
D|----------------|5-----5-6-----6-|7---------------|----------------|
A|------765-----57|----------------|------765-------|7-------7-----5-|
E|5---------------|----------------|--------------57|-------7-------7|
0:42
  x   x   x   x    x   x   x   x    x   x   x   x    x   x   x   x
G|----------------|----------------|----------------|----------------|
D|----------------|----------------|----5-------5---|----7-----------|
A|--------------2-|3-------3-----5-|----------------|-------------2--|
E|5-----567-------|-------3--------|3-------3------3|5-------5---5---|
0:57
  x   x   x   x    x   x   x   x    x   x   x   x    x   x    x   x
G|----------------|----------------|----------------|-----------------|
D|----------------|----5-------5---|----7-----------|-------5--------7|
A|3---3---3---3---|----------------|--------------2-|3---3---35---5---5
E|-------------012|3-------3------3|5-------5---5---|-----------------|
1:11
  x   x   x   x    x   x   x   x    x   x   x   x    x   x   x   x
G|----------------|----------------|----------------|----------------|
D|------------020-|--------------2/|5------x5-------x5------x5-------|
A|7---7--55--2---0|3---3----3335---|----------------|----------------|
E|---7------------|----------------|----3-------3---|----3-------32--|
1:25
  x   x   x   x    x   x   x   x    x   x   x   x    x   x   x   x
G|----------------|----------------|----------------|----------------|
D|----3-------3---|----3-----------|------7---------|5------56-----6-|
A|----------------|----------------|-------75-----57|-----57---------|
E|1------01------0|1------01---13-4|5---------------|----------------|
1:39
  x   x   x   x    x   x   x   x    x   x   x   x    x   x   x   x
G|----------------|----------------|----------------|----------------|
D|7----7----------|----------------|----------------|----------------|
A|------765-------|7---------------|-------02-----2-|3-----3---345-5-|
E|--------------5-|------7\0-----3/|5-----0---------|---------------0|
1:54
  x   x   x   x    x   x   x   x    x   x   x   x    x   x   x   x
G|----------------|----------------|----------------|----------------|
D|----5-------5---|----7-----------|----------------|----5-------5---|
A|----------------|--------------2-|3---3--x3--3----|----------------|
E|3-------3------3|5------45---5---|------------012>|3-------3-------|
2:09
  x   x   x   x    x   x   x   x    x   x   x   x    x   x   x   x
G|----------------|----------------|----------------|----------------|
D|7---------------|----------------|----------------|------------0-2/|
A|--------------2-|3---3--45-----56|7-7----5--5--75-|----------------|
E|----5--05---5---|-----------567--|-7----7--7-----7|8-8---3--/8-----|
2:23
  x   x   x   x    x   x   x   x    x   x   x   x    x   x   x   x
G|----------------|----------------|----------------|----------------|
D|5---------------|----------------|----------------|----------------|
A|----------------|----------------|----------------|----------------|
E|----3--x3---3---x3---3---3---32--|1---1--x1---1---x1---1--x1---13--|
2:37
  x   x   x   x    x   x   x   x    x   x   x   x    x   x   x   x
G|----------------|----------------|----------------|----------------|
D|----------------|579-----679-----|7------------7--|----------------|
A|------765-------|----------------|------7\5-----56|7-------7----5--|
E|5---------------|----------------|----------------|------7-------76|
2:52
  x   x   x   x    x   x   x   x    x   x   x   x    x   x   x   x
G|----------------|----5-----------|----------------|----------------|
D|----------------|----------------|----5-------5---|----7-----------|
A|----0--/2---2---/3---------3-----|----------------|--------------2-|
E|5---------------|------------0012|3------x3-------|5------x5---5---|
3:07
  x   x   x   x    x   x   x   x    x   x   x   x    x   x   x   x
G|----------------|----------------|----------------|----------------|
D|-------------245|----5-------5---|----7-----------|----------------|
A|3---3---3--x3---|----------------|--------------2-|3---3---5---5--6|
E|----------------|3-------3-------|5------35---5---|---3---5---5----|
3:22
  x   x   x   x    x   x   x   x    x   x   x   x    x   x   x   x
G|------------74--|----------------|----------------|----------------|
D|------90------75|----5-----------|5---------------|----------------|
A|7---7-----------|3--------33555/7|----------------|----------------|
E|-70-------------|----------------|----3--x3---3---|3---3---3---32--|
3:36
  x   x   x   x    x   x   x   x    x   x   x   x    x   x   x   x
G|----------------|----------------|----------------|----------------|
D|----------------|----------------|----------------|----------------|
A|----------------|----------------|----------------|----------------|
E|1---1--x1---1---x1---1--x1--x12--|3---3--x3---3---x3---3---3---32--|
3:51
  x   x   x   x    x   x   x   x    x   x   x   x    x   x   x   x
G|----------------|----------------|----------------|----------------|
D|----------------|----------------|----------------|----------------|
A|----------------|----------------|----------------|----------------|
E|1---1--x1---1---x1---1--x1---12--|3---3--x3---3---x3---3---3---32--|
4:06
  x   x   x   x    x   x   x   x    x   x   x   x    x   x   x   x
G|----------------|----------------|----------------|----------------|
D|----------------|----------------|----------------|----------------|
A|----------------|----------------|----------------|------------5---|
E|1---1--x1---1---|1---1---1---12--|3---3--x3---3---|3---3---3----2--|
4:20
  x   x   x   x    x   x   x   x    x   x   x   x    x   x   x   x
G|----------------|----------------|----------------|----------------|
D|----------------|----------------|----------------|----------------|
A|----------------|----------------|---/5------/5---|---/5------/5---|
E|1---1--x1---1---|1---1---1--012--|3-------3-------|3-------3----2--|
4:34
  x   x   x   x    x   x   x   x    x   x   x   x    x   x   x   x
G|----------------|----------------|----------------|----------------|
D|----------------|----------------|-------/5-------|-------/5-------|
A|---/3------/3---|---/3-----------|---/5------/5---|---/5------/5---|
E|1-------1-------|1------01---12--|3---------------|3------------2--|
4:49
  x   x   x   x    x   x   x   x    x   x   x   x    x   x   x   x
G|----------------|----------------|----------------|----------------|
D|----------------/3---------------|----------------|----------------|
A|---/3------/3---|---/3------/3---|----5-------5---|---/5------/5---|
E|1-------1-------|--------1----2--|3-------3-------|3-------3----2--|
5:04
  x   x   x   x    x   x   x   x    x   x   x   x    x   x   x   x
G|----------------|----------------|----------------|----------------|
D|----------------|----------------|---/55------5---|---/55----------|
A|---/3------/3---|---/3-----------|----------------|----------------|
E|1-------1-------|1-------1--01012|3------23----1-2|3-------3---32--|
5:18
  x   x   x   x
G|----------------|
D|----3-------3---|
A|----------------|
E|1------0101-----|
comments
print report bad tab
1 comment total.
+1 reply
kenziethomas13 wrote on September 3 2012, 06:05 pm

Nice tab. My sister plays it on piano and I do it on the bass. Worked out well. Thanks.

I want to post or [tab]
guest
You may want to rate the tab now too:
select rating
Please do not post tabs as comments. Select "correction" instead!