Oops, an error
Loading. Please wait.

Bennie And The Jets Tab

version 1
version 1

Solo

Interactive

1,676 views 9 this week
no commentswrite comment
1 2 3 4 5
please rate
add to favorites
launch autoscroll
font size
0
reset
how to read this tab
guitar tuner
Autoscroll
slow
fast
+/-
esc
set tempo
stop
Help us to improve Ultimate-Guitar.com Take our survey!
×
Contributor
Difficulty
intermediate
-------------------------------------------------------------------------------
                             BENNIE AND THE JET (Piano Solo) - Elton John
-------------------------------------------------------------------------------
Tabbed by: Michael Strassburger

This solo actually works really well on guitar.

/ = slide
h = hammer on
p = pull off
v = vibrato


e-------------------------------------------10-------------------------------------|
B-------------------8------8--10--8--10/12--------11h12--10--8------8--------------|
G--------5--7--7/9----------------------------------------------9------------------|
D---5/7------------------------------------------------------------------7h8h9-----|
A-------------------------------------------------------------------------------10-|
E----------------------------------------------------------------------------------|



e------------------------------------------------10--12----------------------------|
B-----------------------8---10--8--10--8---10/12----------11/12---11--8--10--------|
G------h9--7--9----7/9-------------------------------------------------------------|
D---7h9----------------------------------------------------------------------------|
A----------------------------------------------------------------------------------|
E----------------------------------------------------------------------------------|



e----------------------------------------------------------------------------------|
B--------------------------------------------------8----8----8----8-----8----------|
G---8--9--------------------------------7--9--7----8-9--8-9--8-9--8-9---7----------|
D---------9--8--9------------------8h9---------------------------------------------|
A-----------------10--6--7----10---------------------------------------------------|
E----------------------------------------------------------------------------------|



e-----------------------------------------------|
B------8-----------8vvvvvvvvvv------------------|
G------7--9--7-----9vvvvvvvvvv------------------|
D---9--------------10vvvvvvvvvv-----------------|
A-----------------------------------------------|
E-----------------------------------------------|
comments
We did not receive enough feedback on this tab! Please rate:
print report bad tab
1 2 3 4 5
I want to post or [tab]
guest
You may want to rate the tab now too:
select rating
Please do not post tabs as comments. Select "correction" instead!