Oops, an error
Loading. Please wait.

Burn Down The Mission bass

22 views 1 this week
no commentswrite comment
1 2 3 4 5
3 more votes to show rating
add to favorites
×
Save as Personal and add changes to this tab that will be seen only by you. Learn more ›
×
You can save this tab as Personal to edit and correct it or add notes. All changes will be seen only by you. Learn more »
launch autoscroll
font size
0
reset
guitar tuner
edit
Autoscroll
slow
fast
+/-
esc
set tempo
stop
4/4

[Verse]
G|12----------12--9-----------9---|5-------------------------------|
D|--------------------------------|------------5-------------------|
A|--------------------------------|----------------3-------3-----3-|
E|--------------------------------|--------------------------------|
                                                                    
G|--------------------------------|5-----4-----2-------------------|
D|--------------------------------|------------------5-----5-------|
A|4-----------4---5---------------|----------------------------3-5-|
E|--------------------------------|--------------------------------|
 
[Pre-Chorus]
G|----------2-5-------------5-----|----------2---4-----------------|
D|3-------3-------------------5---|5-----5-5-----------------------|
A|----------------3-----3-------3-|----------------------2---------|
E|--------------------------------|------------------3-5-------3---|
                                                                    
G|----------------------5---------|------0-------------------------|
D|--------3---3-------------5-----|----------0---0-----------------|
A|------3---------3-----------3---|------------2-----------------0-|
E|1-------------------------------|3---------------3-------3---3---| 
                                                                    
G|--------------------------5-----|------------------------------0-|
D|----------------------------5---|----------------------------0---|
A|2-------2-------3-------3-----3-|--------------------------------|
E|--------------------------------|1---------3-----------3---------|
                                                                     
G|--------------0-----------------|----------------5-----------5---|
D|--------------------------------|--------------5-----------------|
A|----------------------------0---|3-------------------------------|
E|3-------3---3---3-------3-------|--------------------------------|
 
                                  [Chorus]
G|--17----------------------------|------------6-------------------|
D|----------17--------------------|----------------------6---------|
A|--------------15--------3---3---|4-------4-----------------6-3---|
E|------------------15------------|----------------4-------------4-|
                                                                    
G|--------------------------------|------------6-------------------|
D|------------------4-------------|--------3-6-----------6---------|
A|--------------1-----------1-3---|4-----4-------------------6-3---|
E|2-------2-4---------2-4---------|----------------4-------------4-|
                                                                     
G|--------------------------------|----------3-0-------------3-----|
D|--------4-----------------------|--------------1-------------3-0-|
A|------4-----4-------------------|1-------1-------1-------1-------|
E|2---------------2-------2---2-4-|--------------------------------| 
                                                                    
G|------------------13------------|----------3-----------3-----3---|
D|--------------------13-10-------|--------------------------------|
A|------------11------------11--4-|1-----1-1---1---1---------1-----|
E|4-----4-4-11----------------11--|--------------------------------|
                                                                    
G|----------------------------1---|------6-----------------6-------|
D|--------------------------------|------------6-------------------|
A|--------------1-3---------------|4-----------------4---------4---|
E|4-------4-------------4---------|--------------------------------|
                                                                   
G|------------5-------------------|--------------------------------|
D|------5-----------5-------------|--------------------------------|
A|3-----------------------3---3---|--------------------------------|
E|--------------------------------|1-------------------------------|
 
[Intelude]
G|--------------------------------|--------------------------------|
D|--------------------------------|--------------------------------|
A|--------------------------------|--------------------------------|
E|--------------------------------|--------------------------------|
                                                                     
G|--------------------------------|--------------------------------|
D|------------------------3---3---|----3-------3-------3-------3---|
A|--------------------------------|--------------------------------|
E|--1-----------------------------|1-------1-------1-------1-------|
                                                                     
G|--------------------------------|--------------------------------|
D|----3-------3-------3-------3---|----3-------3-------3-------3---|
A|--------------------------------|--------------------------------|
E|1-------1-------1-------1-------|1-------1-------1-------1-------| 
                                                                    
G|--------------------------------|--------------------------------|
D|--1-----0-----------------------|----3-------3-------3-------3---|
A|--------------3-----1---0-------|--------------------------------|
E|1---------------------------3---|1-------1-------1-------1-------| 
                                                                    
G|--------------------------------|----0-------0-------0-------0---|
D|--1-----0-----------------------|--------------------------------|
A|--------------3-----1---0-------|--------------------------------|
E|1---------------------------1---|3-------3-------3-------3-------|
                                                                     
G|--------------------------------|--------------------------------|
D|--3-----2-----0-----------------|----5-------5-------5-------5---|
A|--------------------3---2---0---|--------------------------------|
E|3-------------------------------|3-------3-------3-------3-------|
                                                                     
G|--------------------------------|----------------5-----------5---|
D|--3-----2-----0-----------------|------------5-------------------|
A|--------------------3---2---0---|3-------------------------------|
E|3-------------------------------|--------------------------------|
                                                                   
G|1-------1-------3-----------3---|----------------17--------------|
D|--------------------------------|------------15------------------|
A|--------------------------------|15------------------------------|
E|--------------------------------|--------------------------------|
                                                                    
G|5-------------------------------|0-------------------------------|
D|------------5-------------------|--------------------------------|
A|----------------3-----------3---|--------------------------------|
E|--------------------------------|--------------------------------|
                                                                    
G|--------------------------------|--------------------------------|
D|--------------------------------|--------------------------------|
A|--------------------------------|--------------------------------|
E|--------------------------------|--------------------------------|
 
[Verse]
G|--------------------------------|0-----------0-------------------|
D|--------------------------------|----------------2-----------2---|
A|----------------------------3-5-|--------------------------------|
E|--------------------------------|--------------------------------|
                                                                    
G|----------5---------------------|--------------------------------|
D|------------5-------------------|1-------1-------0-----------0---|
A|3---------------3-----3-----3-5-|--------------------------------|
E|--------------------------------|--------------------------------|
                                                                     
G|----------------------7---------|0-------0---0-------------------|
D|--------------------------------|----------------2-----------2---|
A|4-----------4---5-----------5---|--------------------------------|
E|--------------------------------|--------------------------------|
                                                                    
G|--------------------------------|--------------------------------|
D|--------------------------------|--------------------------------|
A|3-------3---------3---------3---|4-----------4-----------5-------|
E|--------------------------------|--------------------------------|
 
                                  [Pre-Chorus]
G|5-----4-----2-------------------|----------2-5-------------5-----|
D|------------------5-----5---5---|3-------3-------------------5---|
A|--------------------------------|----------------3-----3-------3-|
E|--------------------------------|--------------------------------|
                                                                   
G|----------2---4-----------------|----------------------5---------|
D|5-----5-5-----------------------|--------3---3-------------5-----|
A|----------------------2---------|------3---------3-----------3---|
E|------------------3-5-------3---|1-------------------------------| 
                                                                    
G|------0-------------------------|--------------------------5-----|
D|----------0---0-----------------|----------------------------5---|
A|------------2-----------------0-|2-------2-------3-------3-----3-|
E|3---------------3-------3---3---|--------------------------------|
                                                                     
G|------------------------------0-|--------------0-----------------|
D|----------------------------0---|--------------------------------|
A|--------------------------------|--------------------------------|
E|1---------3-----------3---------|3-------3---3---3-------3---3---| 
                                                                    
G|----------------5-----------5---|--17----------------------------|
D|--------------5-----------------|----------17--------------------|
A|3-------------------------------|--------------15--------3---3---|
E|--------------------------------|------------------15------------|
 
[Chorus]
G|------------6-------------------|--------------------------------|
D|----------------------6---------|------------------4-------------|
A|4-------4-----------------6-3---|--------------1-----------1-3---|
E|----------------4-------------4-|2-------2-4---------2-4---------|
                                                                    
G|------------6-------------------|--------------------------------|
D|--------3-6-----------6---------|--------4-----------------------|
A|4-----4-------------------6-3---|------4-----4-------------------|
E|----------------4-------------4-|2---------------2-------2---2-4-| 
                                                                    
G|----------3-0-------------3-----|------------------13------------|
D|--------------1-------------3-0-|--------------------1310--------|
A|1-------1-------1-------1-------|------------11------------11--4-|
E|--------------------------------|4-----4-4-11----------------114-|
                                                                    
G|----------3-----------3-----3---|----------------------------1---|
D|--------------------------------|--------------------------------|
A|1-----1-1---1---1---------1-----|--------------1-3---------------|
E|--------------------------------|4-------4-------------4---------|
                                                                    
G|------6-----------------6-------|------------5-------------------|
D|------------6-------------------|------5-----------5-------------|
A|4-----------------4---------4---|3-----------------------3---3---|
E|--------------------------------|--------------------------------|
                                                                    
G|--------------------------------|--------------------------------|
D|--------------------------------|--------------------------------|
A|--------------------------------|--------------------------------|
E|1-------------------------------|--------------------------------|
 
                                  [Outro]
G|--------------------------------|--------------------------------|
D|--------------------------------|------------------------3---3---|
A|--------------------------------|--------------------------------|
E|--------------------------------|--1-----------------------------| 
                                                                    
G|--------------------------------|--------------------------------|
D|----3-------3-------3-------3---|----3-------3-------3-------3---|
A|--------------------------------|--------------------------------|
E|1-------1-------1-------1-------|1-------1-------1-------1-------|
                                                                    
G|--------------------------------|--------------------------------|
D|----3-------3-------3-------3---|--1-----0-----------------------|
A|--------------------------------|--------------3-----1---0-------|
E|1-------1-------1-------1-------|1---------------------------3---|
                                                                    
G|--------------------------------|--------------------------------|
D|----3-------3-------3-------3---|--1-----0-----------------------|
A|--------------------------------|--------------3-----1---0-------|
E|1-------1-------1-------1-------|1---------------------------1---|
                                                                     
G|----0-------0-------0-------0---|--------------------------------|
D|--------------------------------|--3-----2-----0-----------------|
A|--------------------------------|--------------------3---2---0---|
E|3-------3-------3-------3-------|3-------------------------------|
                                                                    
G|--------------------------------|--------------------------------|
D|----5-------5-------5-------5---|--3-----2-----0-----------------|
A|--------------------------------|--------------------3---2-------|
E|3-------3-------3-------3-------|3---------------------------4---|
                                                                     
G|--------------------------------|--------------------------------|
D|--------------------------------|--------------------------------|
A|--------------------------------|--------------------------------| (x8)
E|3---3---3---3---3---3---3---3---|3---3---3---3---3---3---3---3---|
                                                                  
G|--------------------------------|--------------------------------|
D|--3-----2-----0-----------------|--------------------------------|
A|--------------------3-----0-----|--------------------------------|
E|--------------------------------|3-------------------------------|

            
            
Suggest correction
Creating personal tab
Creating personal tab
You can edit any tab online and save it as your Personal.

You can edit, replace or remove any tab part or add personal notes – all changes will be seen only by you.

Personal tabs can be accessed anytime from any device, even offline.
Learn more »
Give kudos to tab author, rate the tab!
1 2 3 4 5
comments
print report bad tab
guest
You may want to rate the tab now too:
select rating
Wanna post a correction for this tab? Suggest correction