Oops, an error
Loading. Please wait.

Can You Feel The Love Tonight Tab

version 2
version 2

Whole song

35,932 views 12 this week
no commentswrite comment
1 2 3 4 5
please rate
add to favorites
launch autoscroll
font size
0
reset
how to read this tab
guitar tuner
Tab Pro tools
  • play this tab
  • loop segment
  • change instrument
  • show fretboard
  • metronome
×
Best way to learn
"Can You Feel The Love Tonight"
Autoscroll
slow
fast
+/-
esc
set tempo
stop
Contributor
My arrangement of Can You Feel The Love Tonight by Elton John.
Please inform me of any corrections or suggestions you might have, enjoy.

Tabbed by Maxim

Gtr I Standard Tuning (E A D G B E)

 Intro
  Q=70
 4/4
  Gtr I
  E E E E E E E E   E E E E E E E E   E E E E E E E E   E E E E E E E E
|-0-------3-------|-1-------0-------|-1-------0-------|-3---0---1---0----|
|---1---1---3---3-|---1---1---1---1-|---1---1---1-----|---0---1---1------|
|-----0-------0---|-----2-------0---|-----2-------0---|---------2-----0--|
|-----------------|---3---3---------|---------------2-|-0---2---0--------|
|-3---3---2---2---|-3---3---3---3---|-3---3---3---3---|-2---3-------3----|
|-----------------|---------3---3---|-1---1---0---0---|-------------0----|
  Q   Q   Q   Q     E E E E Q   Q     Q   Q   Q   Q     Q   Q   Q   Q


 Verse
  E E E S E   E.   +Q      E E E S H         +S
|------------------------|-----------------------|
|---0-1-3-1--------------|---0-1-3-1---------(1)-|
|-2-----------0----(0)---|-2-----------0---------|
|-----3-----2----------2-|---------------2-------|
|-----------3-------3----|-------3---3-----3-----|
|-1-----1--------3-------|-1---1-----------------|
  Q   E E   E    E  E  E   Q   E E   E E E E


  E E E E E E E E   E E E E H
|---------------0-|-1-0---0---------|
|---0-1-1-3-1-----|-----3---3-------|
|-2-----------0---|---2---2-----0---|
|-----3-----2-----|-0---0-----0---0-|
|---------3-----3-|-----------------|
|-1-----1---------|---------3-------|
  Q   E E E Q   E   E E E E E E E E


  E E E S E   E.   +Q      E E E S S +H
|------------------------|---------------------|
|---0-1-3-1--------------|---0-1-3-1-(1)-------|
|-2-----------0----(0)---|-2-------------0-----|
|-----3-----2----------2-|-----------------2---|
|-----------3-------3----|-------3----3------3-|
|-1-----1--------3-------|-1---1---------------|
  Q   E E   E    E  E  E   Q   E E    E  E E E


  E E E S E   E.   S S E   E E E E H
|-------0-3---0----------|-1-0---0---------|
|---0-1------------3-3-1-|-----3---3-------|
|-2----------------------|---2---2-----0---|
|-----3----------2-------|-0---0-----0---0-|
|-----------3----------3-|-----------------|
|-1-----1----------------|---------3-------|
  Q   E E   E    Q     E   E E E E E E E E


   Chorus
    Q.     E Q.     E   Q.     E H
||--3------0--------3-|-0----------------|
||o----------3--------|--------1---------|
||-------0------------|------2---2-------|
||-----2---2------0---|----2---2-----3---|
||o-3-----------2---2-|-0----------3---3-|
||-----------3--------|----------1-------|
    E  E E E E  E E E   E  E E E E E E E


  +E  S S E H       E   W
|-----------1-------0-|-----------------|
|---------1-----------|-3---------------|
|-(2)---0-------2---2-|-----------------|
|-----2---2---0---0---|-----0-------0---|
|--3--------3---------|---2---2---2-----|
|---------------------|-3-------3-----3-|
   Q      E E E E E E   E E E E E E E E


  +E  S S H       +E  S S   Q   Q   S S Q.
|-------------------------|-3---0--------------|
|-(3)---0-1-------(1)-----|---------1-1--------|
|-----2---------------0-0-|-------------2------|
|-----------3---2-----2---|-------2--------3---|
|---------3---3----3------|---2-0-------3----3-|
|--1----------------------|-3-------1----------|
   Q      E E E E  E  E     E E E E E   E  E E


  Q   Q   Q   E E   +H..             E
|-1---0-------0---|----------------------||
|---------3-----3-|-(3)-----------------o||
|---2-------2-----|------------------0---||
|-0-----2-0---0---|--------0---0---------||
|-----3-----------|------2---2---2---2--o||
|---------------3-|-(3)------------3-----||
  E E E E E E E E   +E   E E E E E E E


 Interlude
  E E E E E E E E   E E E E E E E E   E E E E E E E E   E E E E E E E E
|-0-------3-------|-1-------0-------|-1-------0-------|-3---0---1---0---|
|---1---1---3---3-|---1---1---1---1-|---1---1---1-----|---0---1---1-----|
|-----0-------0---|-----2-------0---|-----2-------0---|---------2-----0-|
|-----------------|---3---3---------|---------------2-|-0---2---0-------|
|-3---3---2---2---|-3---3---3---3---|-3---3---3---3---|-2---3-------3---|
|-----------------|---------3---3---|-1---1---0---0---|-------------0---|
  Q   Q   Q   Q     E E E E Q   Q     Q   Q   Q   Q     Q   Q   Q   Q


 Verse
  E E E S E   E.   +Q      E E E S H         +S
|------------------------|-----------------------|
|---0-1-3-1--------------|---0-1-3-1---------(1)-|
|-2-----------0----(0)---|-2-----------0---------|
|-----3-----2----------2-|---------------2-------|
|-----------3-------3----|-------3---3-----3-----|
|-1-----1--------3-------|-1---1-----------------|
  Q   E E   E    E  E  E   Q   E E   E E E E


  E E E E E E E E   E E E E H
|---------------0-|-1-0---0---------|
|---0-1-1-3-1-----|-----3---3-------|
|-2-----------0---|---2---2-----0---|
|-----3-----2-----|-0---0-----0---0-|
|---------3-----3-|-----------------|
|-1-----1---------|---------3-------|
  Q   E E E Q   E   E E E E E E E E


  E E E S E   E.   +Q      E E E S S +H
|------------------------|---------------------|
|---0-1-3-1--------------|---0-1-3-1-(1)-------|
|-2-----------0----(0)---|-2-------------0-----|
|-----3-----2----------2-|-----------------2---|
|-----------3-------3----|-------3----3------3-|
|-1-----1--------3-------|-1---1---------------|
  Q   E E   E    E  E  E   Q   E E    E  E E E


  E E E S E   E.   S S E   E E E E H
|-------0-3---0----------|-1-0---0---------|
|---0-1------------3-3-1-|-----3---3-------|
|-2----------------------|---2---2-----0---|
|-----3----------2-------|-0---0-----0---0-|
|-----------3----------3-|-----------------|
|-1-----1----------------|---------3-------|
  Q   E E   E    Q     E   E E E E E E E E


 Chorus
  Q.     E Q.     E   Q.     E H
|-3------0--------3-|-0----------------|
|----------3--------|--------1---------|
|------0------------|------2---2-------|
|----2---2------0---|----2---2-----3---|
|-3-----------2---2-|-0----------3---3-|
|----------3--------|----------1-------|
  E  E E E E  E E E   E  E E E E E E E


  +E  S S E H       E   W
|-----------1-------0-|------------------|
|---------1-----------|-3----------------|
|-(2)---0-------2---2-|------------------|
|-----2---2---0---0---|-----0-------0----|
|--3--------3---------|---2---2---2------|
|---------------------|-3-------3-----3--|
   Q      E E E E E E   E E E E E E E E


  +E  S S H       +E  S S   Q   Q   S S Q.
|-------------------------|-3---0--------------|
|-(3)---0-1-------(1)-----|---------1-1--------|
|-----2---------------0-0-|-------------2------|
|-----------3---2-----2---|-------2--------3---|
|---------3---3----3------|---2-0-------3----3-|
|--1----------------------|-3-------1----------|
   Q      E E E E  E  E     E E E E E   E  E E


  Q   Q   Q   E E   +W
|-1---0-------0---|--------------------|
|---------3-----3-|-(3)----------------|
|---2-------2-----|---------0---0---0--|
|-0-----2-0---0---|-------0---0--------|
|-----3-----------|-----2---------2----|
|---------------3-|-(3)----------------|
  E E E E E E E E   +E  E E E E E E E


 Outro
  Q=65
  E S S H       +E  S S   Q   Q   S S Q.
|-----------------------|-3---0--------------|
|-3---0-1-------(1)-----|---------1-1--------|
|---2---------------0-0-|-------------2------|
|---------3---2-----2---|-------2--------3---|
|-------3---3----3------|---2-0-------3----3-|
|-1---------------------|-3-------1----------|
  Q     E E E E  E  E     E E E E E   E  E E


  Q   Q   Q   E E   +W
|-1---0-------0---|-----------3----*|
|---------3-----3-|-(3)-------3----*|
|---2-------2-----|---------0-0----*|
|-0-----2-0---0---|-------0---0----*|
|-----3-----------|-----2-----2----*|
|---------------3-|-(3)-------3----*|
  E E E E E E E E   +E  E E E H


Duration Legend
---------------
W - whole; H - half; Q - quarter; E - 8th; S - 16th; T - 32nd; X - 64th; a - acciaccatura
+ - note tied to previous; . - note dotted; .. - note double dotted
Uncapitalized letters represent notes that are staccato (1/2 duration)
Irregular groupings are notated above the duration line
Duration letters will always appear directly above the note/fret number it represents the
duration for.  Duration letters with no fret number below them represent rests.  Multi-
bar rests are notated in the form Wxn, where n is the number of bars to rest for.  Low
melody durations appear below the staff

Tablature Legend
----------------
 h   - hammer-on
 p   - pull-off
 b   - bend
 pb  - pre-bend
 r   - bend release (if no number after the r, then release immediately)
 /\  - slide into or out of (from/to "nowhere")
 s   - legato slide
 S   - shift slide
  - natural harmonic
[n]  - artificial harmonic
n(n) - tapped harmonic
 ~   - vibrato
 tr  - trill
 T   - tap
 TP  - trem. picking
 PM  - palm muting
\n/  - tremolo bar dip; n = amount to dip
 \n  - tremolo bar down
 n/  - tremolo bar up
/n\  - tremolo bar inverted dip
 =   - hold bend; also acts as connecting device for hammers/pulls
 <>  - volume swell (louder/softer)
 x   - on rhythm slash represents muted slash
 o   - on rhythm slash represents single note slash

Misc Legend
-----------
 |  - bar
||  - double bar
||o - repeat start
o|| - repeat end
*|  - double bar (ending)
 :  - bar (freetime)
 $  - Segno
 &  - Coda
Tempo markers -  = BPM(8/16=s8/s16), where s8 = swing 8ths, s16 = swing 16ths
comments
We did not receive enough feedback on this tab! Please rate:
print report bad tab
1 2 3 4 5
I want to post or [tab]
guest
You may want to rate the tab now too:
select rating
Please do not post tabs as comments. Select "correction" instead!