Oops, an error
Loading. Please wait.

Can You Feel The Love Tonight Tab

version 4
version 4

Whole song

10,779 views 39 this week
1 commentread comment
1 2 3 4 5
x 12
add to favorites
launch autoscroll
font size
0
reset
how to read this tab
guitar tuner
backing track
0:00
0:00
×
Best way to learn
"Can You Feel The Love Tonight"
Autoscroll
slow
fast
+/-
esc
set tempo
stop
Author
Difficulty
intermediate
e|--2-----------0-----5-----|--3--------3--3--2--------|
B|--------3-----------------|--------0-----------3-----|
G|-----2-----2-----2-----2--|-----0-----------------2--|
D|--0-----------------------|--------------0-----------|
A|--------------0-----------|--------------------------|
E|--------------------------|--3-----------------------|

e|-----------3---------------|--------------------------|
B|-0-----0-3----3-----3------|--------------------------|
G|-----0-----------2---------|--------------------2-----|
D|--------------0--------/5--|--2-----4-----5-----------|
A|---------------------------|--------------------0--0--|
E|-3-------------------------|--0--0--2--2--3--3--------|

e|-----------0------------------|
B|-0--2-3-------3---------------|
G|-----------------2-------2h-4-|
D|--------------0-----2h-4------|
A|------------------------------|
E|-3------3---------------------|

e|-----------0--------------------|------------0-------2-------|
B|-0--2-3-------3-----------------|--0--2-3-------3------------|
G|---------------------------2h-4-|------------------2------2--|
D|--------------0----0h-2h-4------|---------------0------0-----|
A|--------------------------------|----------------------------|
E|-3------3-----------------------|--3------3------------------|

e|-3--2-0---2--0-------------|------------0------------------|
B|---------------5-----3-----|--0--2-3-L-----3---------------|
G|------------------2--------|------------------2-------2h-4-|
D|---------------------2-----|---------------0-----2h-4------|
A|---------------0--------0--|-------------------------------|
E|-0------0------------------|--3------3---------------------|

e|-----------0--------------------|------------0--5--2--------|
B|-0--2-3-------3-----------------|--0--2-3-------------3-----|
G|---------------------------2h-4-|---------------------------|
D|--------------0----0h-2h-4------|------------------------4--|
A|--------------------------------|---------------------2-----|
E|-3------3-----------------------|--3------3-----2-----------|

e|-3--2-0---2--0-------------------------|
B|---------------------3-----2-----------|
G|---------------------2-----2-----------|
D|------------------2-----2-----2-----2--|
A|-3------3------0-----0-----0-----0-----|
E|---------------------------------------|

e|-5-----2--0--------5--2--|--------------------3--2--|
B|-------------------2-----|--------3--0--------3--3--|
G|----2--------------------|--------------------------|
D|-0--------------2--------|-----4--4--------0--------|
A|-------------0-----------|--2-----------------------|
E|-------------------------|--------------3-----------|

e|-----------3--3-----2--0--|--------------5-5--0----------|
B|------0-3----------------|----------3-5---------2--------|
G|-----------------0--------|--2---0-2----------------2----|
D|-0---0--------------------|------------------------------|
A|--------------------------|--0-------------0-------------|
E|--------------3-----4-----|------------------------------|

e|--------------------------|--5-----2------------------|
B|----0-2-3-----------------|--------2-----3-3-0-----3--|
G|----0---------------2--2--|-----2-----2---------------|
D|-----------------2--------|---------------------------|
A|--------------0-----------|---------------------------|
E|-3---------3--------------|--2-----------3------2-----|

e|-3-----2-----0-----2--0--|--------------5-5--0--------|
B|-------------------------|----------3-5---------2-----|
G|----0-----2-----0--------|--2---0-2----------------2--|
D|-------------------------|----------------------------|
A|-------------------------|--0-------------0-----------|
E|-0-----2-----3-----4-----|----------------------------|

e|-5-----2--0--------5--2--|--------------------3--2--|
B|-------------------2-----|--------3--0--------3--3--|
G|----2--------------------|--------------------------|
D|-0--------------2--------|-----4--4--------0--------|
A|-------------0-----------|--2-----------------------|
E|-------------------------|--------------3-----------|

e|-----------3--3-----2--0--|-----------------------------|
B|-------0-3----------------|--------3----3--2----2-------|
G|-----------------0--------|--------2----2--2----2--2----|
D|-0---0--------------------|-----2-----2-------2---------|
A|--------------------------|--0--------------------------|
E|-------------3-----4-----|------------------------------|

e|--------------------------|--5-----2------------------|
B|----0-2-3-----------------|--------2-----3-3-0-----3--|
G|----0---------------2--2--|-----2-----2---------------|
D|-----------------2--------|---------------------------|
A|--------------0-----------|---------------------------|
E|-3---------3--------------|--2-----------3------3-----|

e|-3-----2-----0-----------|--------------2--------|
B|----------------------3--|--3--------3--3--------|
G|----0-----2--------0-----|--------2-----2--------|
D|----------------0-----0--|-----0--------0--------|
A|-------------------------|-----------------------|
E|-0-----2-----3-----------|-----------------------|


************************************

| /  Slide up
| h  Hammer-on 

************************************
Suggest correction
comments
print report bad tab
1 comment total.
0 reply
kaelsohappy1 32 May 05, 2014 05:50 AM

Cool!!! I love it.

guest
You may want to rate the tab now too:
select rating
Wanna post a correction for this tab? Suggest correction