Oops, an error
Loading. Please wait.

Come Down In Time bass

16 views 1 this week
no commentswrite comment
1 2 3 4 5
3 more votes to show rating
add to favorites
×
Save as Personal and add changes to this tab that will be seen only by you. Learn more ›
×
You can save this tab as Personal to edit and correct it or add notes. All changes will be seen only by you. Learn more »
launch autoscroll
font size
0
reset
guitar tuner
edit
Autoscroll
slow
fast
+/-
esc
set tempo
stop
4/4
[Verse]                                                                    
G|--------------------------------|--------------------------------|
D|--------------------------------|0-------------------------------|
A|0-------------------------------|--------------------------------|
E|--------------------------------|--------------------------------|
 
                                                                    
G|--------------------------------|--------------------------------|
D|--------------------------------|0-------------------------------|
A|0-------------------0---3---0---|--------------------------------|
E|--------------------------------|--------------------------------|
 
                                                                    
G|--------------------------------|--------------------------------|
D|--------------------------------|--------------------------------|
A|3-------------------------------|2-----------------------2---3---|
E|--------------------------------|--------------------------------|
 
                                                                    
G|--------------------------------|--------------------------------|
D|0-----------------------0-------|2-----------------------2-------|
A|--------------------------------|--------------------------------|
E|--------------------------------|--------------------------------|
 
                                                                    
G|--------------------------------|--------------------------------|
D|--------------------------------|0-------------------------------|
A|0-------------------------------|--------------------------------|
E|--------------------------------|--------------------------------|
 
                                                                    
G|--------------------------------|--------------------------------|
D|--------------------------------|0-------------------------------|
A|0-------------------0---3---0---|--------------------------------|
E|--------------------------------|--------------------------------|
 
                                                                    
G|--------------------------------|--------------------------------|
D|--------------------------------|--------------------------------|
A|3-------------------------------|2-----------------------2---3---|
E|--------------------------------|--------------------------------|
 
                                                                    
G|--------------------------------|----------------1---2-------4---|
D|0-----------------------0-------|2-------------------------------|
A|--------------------------------|--------------------------------|
E|--------------------------------|--------------------------------|
 
[Chorus]                                                                    
G|----------------0---------------|----------------0-----2---------|
D|3-----------3-------------------|2-----------2-------------------|
A|----0---3-----------------------|--------2-----------------------|
E|--------------------------------|----3---------------------------|
 
                                                                    
G|--------------------------------|--------------------------------|
D|----------------3-------5-------|----------------0-------2-------|
A|5-------3---5-------------------|3-------3---3-------------------|
E|----5---------------------------|----3---------------------------|
 
                                                                    
G|----------------0---------------|----------------0-----2---------|
D|3-----------3-------------------|2-----------2-------------------|
A|----0---3-----------------------|--------2-----------------------|
E|--------------------------------|----3---------------------------|
 
                                                                    
G|--------------------------------|--------------------------------|
D|----------------3-------5-------|----------------0-------2-------|
A|5-------3---5-------------------|3-------3---3-------------------|
E|----5---------------------------|----3---------------------------|
 
                                                                    
G|----------------------------1---|----------------1---------------|
D|3---------------3-------3-------|------------------------1-------|
A|--------------------------------|--------------------------------|
E|--------------------------------|--------------------------------|
 
                                                                    
G|--------------------------------|--------------------------------|
D|--------------------------------|--------------------------------|
A|3-----------------------3-------|0-----------0-------------------|
E|------------3-------------------|--------------------------------|
 
                                                                    
G|--------------------------------|--------------------------------|
D|3-----------------------3-------|1-----------1-------------------|
A|------------3-------------------|--------------------------------|
E|--------------------------------|--------------------------------|
 
                                                                    
G|--------------------------------|--------------------------------|
D|0-----------0-------------------|----------------------------0---|
A|--------------------------------|0-----------3-------------------|
E|--------------------------------|--------------------------------|
 
                                                                    
G|--------------------------------|----------------------------9---|
D|--------------------------------|--------------------------------|
A|--------------------------------|7-----------7-------------------|
E|--------------------------------|--------------------------------|
 
                                  [Verse]                                  
G|--------------------------------|--------------------------------|
D|--------------------------------|--------------------------------|
A|--------------------------------|0-------------------------------|
E|--------------------------------|--------------------------------|
 
                                                                    
G|--------------------------------|--------------------------------|
D|0-------------------------------|--------------------------------|
A|--------------------------------|0-------------------0---3---0---|
E|--------------------------------|--------------------------------|
 
                                                                    
G|--------------------------------|--------------------------------|
D|0-------------------------------|--------------------------------|
A|--------------------------------|3-------------------------------|
E|--------------------------------|--------------------------------|
 
                                                                    
G|--------------------------------|--------------------------------|
D|--------------------------------|0-----------------------0-------|
A|2-----------------------2---3---|--------------------------------|
E|--------------------------------|--------------------------------|
 
                                                                    
G|--------------------------------|--------------------------------|
D|2-----------------------2-------|--------------------------------|
A|--------------------------------|0-------------------------------|
E|--------------------------------|--------------------------------|
 
                                                                    
G|--------------------------------|--------------------------------|
D|0-------------------------------|--------------------------------|
A|--------------------------------|0-------------------0---3---0---|
E|--------------------------------|--------------------------------|
 
                                                                    
G|--------------------------------|--------------------------------|
D|0-------------------------------|--------------------------------|
A|--------------------------------|3-------------------------------|
E|--------------------------------|--------------------------------|
 
                                                                    
G|--------------------------------|--------------------------------|
D|--------------------------------|0-----------------------0-------|
A|2-----------------------2---3---|--------------------------------|
E|--------------------------------|--------------------------------|
 
                                                                    
G|----------------1---2-------4---|----------------0---------------|
D|2-------------------------------|3-----------3-------------------|
A|--------------------------------|----0---3-----------------------|
E|--------------------------------|--------------------------------|
 
                                                                    
G|----------------0-----2---------|--------------------------------|
D|2-----------2-------------------|----------------3-------5-------|
A|--------2-----------------------|5-------3---5-------------------|
E|----3---------------------------|----5---------------------------|
 
                                                                    
G|--------------------------------|----------------0---------------|
D|----------------0-------2-------|3-----------3-------------------|
A|3-------3---3-------------------|----0---3-----------------------|
E|----3---------------------------|--------------------------------|
 
                                                                    
G|----------------0-----2---------|--------------------------------|
D|2-----------2-------------------|----------------3-------5-------|
A|--------2-----------------------|5-------3---5-------------------|
E|----3---------------------------|----5---------------------------|
 
                                                                    
G|--------------------------------|----------------------------1---|
D|----------------0-------2-------|3---------------3-------3-------|
A|3-------3---3-------------------|--------------------------------|
E|----3---------------------------|--------------------------------|
 
                                                                    
G|----------------1---------------|--------------------------------|
D|------------------------1-------|--------------------------------|
A|--------------------------------|3-----------------------3-------|
E|--------------------------------|------------3-------------------|
 
                                                                    
G|--------------------------------|--------------------------------|
D|--------------------------------|3-----------------------3-------|
A|0-----------0-------------------|------------3-------------------|
E|--------------------------------|--------------------------------|
 
                                                                    
G|--------------------------------|--------------------------------|
D|1-----------1-------------------|0-----------0-------------------|
A|--------------------------------|--------------------------------|
E|--------------------------------|--------------------------------|
 
                                                                    
G|--------------------------------|--------------------------------|
D|----------------------------0---|--------------------------------|
A|0-----------3-------------------|--------------------------------|
E|--------------------------------|--------------------------------|
 
                                                                    
G|----------------------------9---|--------------------------------|
D|--------------------------------|--------------------------------|
A|7-----------7-------------------|--------------------------------|
E|--------------------------------|--------------------------------|
 
                                                                    
G|--------------------------------|--------------------------------|
D|--------------------------------|0-------------------------------|
A|0-------------------------------|--------------------------------|
E|--------------------------------|--------------------------------|
 
                                                                    
G|--------------------------------|--------------------------------|
D|--------------------------------|0-------------------------------|
A|0-------------------0---3---0---|--------------------------------|
E|--------------------------------|--------------------------------|
 
                                                                    
G|--------------------------------|--------------------------------|
D|--------------------------------|0-------------------------------|
A|0-------------------------------|--------------------------------|
E|--------------------------------|--------------------------------|
 
                                                                    
G|--------------------------------|--------------------------------|
D|--------------------------------|0-------------------------------|
A|0-------------------0---3---0---|--------------------------------|
E|--------------------------------|--------------------------------|
 
                                                                    
G|--------------------------------|--------------------------------|
D|--------------------------------|0-------------------------------|
A|0-------------------------------|--------------------------------|
E|--------------------------------|--------------------------------|
 
                                                                    
G|--------------------------------|--------------------------------|
D|--------------------------------|0-------------------------------|
A|0-------------------0---3---0---|--------------------------------|
E|--------------------------------|--------------------------------|
 
                                                                    
G|--------------------------------|--------------------------------|
D|--------------------------------|0-------------------------------|
A|0-------------------------------|--------------------------------|
E|--------------------------------|--------------------------------|
 
                                                                    
G|--------------------------------|--------------------------------|
D|--------------------------------|0-------------------------------|
A|0-------------------0---3---0---|--------------------------------|
E|--------------------------------|--------------------------------|
 
                                                                    
G|--------------------------------|--------------------------------|
D|--------------------------------|0-------------------------------|
A|0-------------------0---3---0---|--------------------------------|
E|--------------------------------|--------------------------------|
 
                                                                    
G|--------------------------------|--------------------------------|
D|--------------------------------|0-------------------------------|
A|0-------------------------------|--------------------------------|
E|--------------------------------|--------------------------------|
 
                                                                    
G|--------------------------------|--------------------------------|
D|--------------------------------|--------------------------------|
A|3-------------------------------|2-----------------------2---3---|
E|--------------------------------|--------------------------------|
 
                                   
G|--------------------------------|
D|--------------------------------|
A|0-------------------------------|
E|--------------------------------|
Suggest correction
Creating personal tab
Creating personal tab
You can edit any tab online and save it as your Personal.

You can edit, replace or remove any tab part or add personal notes – all changes will be seen only by you.

Personal tabs can be accessed anytime from any device, even offline.
Learn more »
Give kudos to tab author, rate the tab!
1 2 3 4 5
comments
print report bad tab
guest
You may want to rate the tab now too:
select rating
Wanna post a correction for this tab? Suggest correction