Oops, an error
Loading. Please wait.

Crocodile Rock Bass Tab

version 2
version 2

Whole song

Interactive

8,806 views 3 this week
1 commentread comment
1 2 3 4 5
x 4
add to favorites
launch autoscroll
font size
0
reset
guitar tuner
Autoscroll
slow
fast
+/-
esc
set tempo
stop
Help us to improve Ultimate-Guitar.com Take our survey!
×
Author
Difficulty
novice
Verse
G  :--------------------|---------------------|--------------------|
D  :5-5-------5-5-------|---------------------|--------------------|
A  :----7-5-7-----7-5-5-|2-2---2---2-2---2-2-2|3-3-------3-3-----3-|
E  :--------------------|----2---2-----2------|----5-3-3-----5-3---|

G  :-----------------------|--------------------|---------------------|
D  :--------------------5--|5-5-------5-5-------|---------------------|
A  :5-5-5-5-5-5-5-5-5-7---7|----7-5-7-----7-5-5-|2-2---2---2-2---2-2-2|
E  :-----------------------|--------------------|----2---2-----2------|

                                                 Chorus
G  :--------------------|-----------------------|---------------------|
D  :--------------------|-----------------------|---------------------|
A  :3-3-------3-3-----3-|5-5-5-5-5-5-5-5-5-5-5-5|--7-5-7-5-7-5-7-5-7-5|
E  :----5-3-3-----5-3---|-----------------------|---------------------|

G  :-------------------------------|-------------------------------|
D  :-------------------------------|----------------------------5--|
A  :0-0-0-0-0-0-0-0-0-0-0-0-0-0-0-0|5-5-5-5-5-5-5-5-5-5-5-5-5-7---7|
E  :-------------------------------|-------------------------------|

G  :--------------------|-------------------------------|
D  :5-5-------5-5-------|-------------------------------|
A  :----7-5-7-----7-5-5-|-------------------------------|
E  :--------------------|0-0-0-0-0-0-0-0-0-0-0-0-0-0-0-0|

G  :----------------|--------7-5-------------7-5----|----------------|
D  :----------------|------------7-5-------------7-5|----------------|
A  :0-2-3-4-0-2-3-4-|5-5-5-5---------5-5-5-5--------|3--3--3--3--3-3-|
E  :----------------|-------------------------------|----------------|

    Interlude
G  :-------------------|-------------------|-------------------|
D  :5--5------5----5---|-------------------|-------------------|
A  :-----5--5----5---9-|7--7------7----7-5-|3--3------3----3-4-|
E  :-------------------|-----7--7----7-----|-----3--3----3-----|

G  :-----------------------|
D  :--------------------5--|
A  :5-5-5-5-5-5-5-5-5-7---7|
E  :-----------------------|
	
Suggest correction
comments
print report bad tab
1 comment total.
+1 reply
morningcrow00 31 Aug 10, 2009 04:58 PM

Nice tab!

guest
You may want to rate the tab now too:
select rating
Wanna post a correction for this tab? Suggest correction