Oops, an error
Loading. Please wait.

Crocodile Rock Bass Tab

version 3
version 3

Whole song

Interactive

14,102 views 36 this week
1 commentread comment
1 2 3 4 5
excellent!
x 10
add to favorites
launch autoscroll
font size
0
reset
guitar tuner
Autoscroll
slow
fast
+/-
esc
set tempo
stop
Help us to improve Ultimate-Guitar.com Take our survey!
×
Author
Difficulty
intermediate
CROCODILE ROCK - Elton John
Tabbed By: CSC      Tuning: EADG

It's not absolutely precise in either note-for-note accuracy or transcription with
to timing, but it's as close as I could get.

Verse 1 (0:14)
G|------|---------------------|----------------------|-----------------------|
D|---5--|-55-------5-5--------|----------------------|-----------------------|
A|-57-7-|----7-5-7-----7-5-7--|-22---2---2-2---2-2-0-|-33-------3-3--------3-|
E|------|-------------------5-|----2---2-----2-------|----5-3-5-----5-33-5---|

G|----------------------|---------------------|--------------------|
D|-------------------5--|-55-------5-5--------|--------------------|
A|-55---5---5-5----57-7-|----7-5-7-----7-557--|-2---2---2-2---2202-|
E|----5---5-----5-------|-------------------5-|---2---2-----2------|

G|-----------------------|-------------------------|
D|-----------------------|-------------------------|
A|-33-------3-3-------34-|-55---5---5-5---5--5-6-7-|
E|----5-3-5-----5-0h35---|----5---5-----5----------|

Chorus 1 (0:41)
G|-------------------------|-----------------|-------------------|--------------------|
D|-------------------------|--------77-------|----------------5--|-55-------5-555-----|
A|-7--5-7--5-7--5-7--5-----|--234----------4-|-5-5-5---5-5-557-7-|----7-5-7------75---|
E|--------------------765>-|-5----5-----7>---|------75-----------|-----------------75-|

G|----------------------|------------------|-----4-2---------4-2-----|------------------------|
D|-2-0h22-0h22-0h22-020-|------------------|---------4-0---0-----4-0-|------------------------|
A|----------------------|-0-2-3-4-0-2-3-4--|-5-5---------------------|-3------3---3------33-5-|
E|----------------------|------------------|-------------------------|----5-3--------5-3------|

Bridge (1:06)
G|--------------------|-------------------|-------------------|--------------------|
D|-5--5------5----5-4-|2--2------2----2-0-|-------------------|--------------------|
A|------5--5----5-----|-----2--2----2-----|3--3------3--2-3-4-|-5-5----5----5----5-|
E|--------------------|-------------------|-----3--3----------|------5----5----5---|

Verse 2 (1:18)
G|------|---------------------|---------------------|-----------------------|
D|---5--|-55-------5-5--------|---------------------|-----------------------|
A|-57-7-|----7-5-7-----7-5-7--|-22---2---2-2---2-02-|-33-------3-3-------34-|
E|------|-------------------5-|----2---2-----2------|----5-3-5-----5-0h35---|

G|------------------------|---------------------|----------------------|
D|------------------------|-55-------5-5--------|----------------------|
A|-55---5---5-5----50h4/5-|----7-5-7-----7-557--|-22---2---2-2----2023-|
E|----5---5-----5---------|-------------------5-|----2---2-----2-------|

G|----------------------|---------------------------|
D|----------------------|---------------------------|
A|-3--------3-3-------3-|-55---5---5---5--5-4-5-6-7-|
E|---5-3-5------5-33-5--|----5---5---5--------------|

Chorus 2 (1:45)
G|-------------------------|--------------------|-------------------|--------------------|
D|-------------------------|-----7--------------|----------------5--|-55-------5-555-----|
A|-7--5-7--5-7--5-7--5-----|----7--7--------5-5-|-5------5--5-557-7-|----7-5-7------75---|
E|----------------------75-|7-89-----5--0h57-7--|---7-5-7-----------|-----------------75-|

G|----------------------|------------------|-----4-2---------4-2-----|---------------------|
D|-2-0h22-0h22-0h22-020-|------------------|---------4-0---0-----4-0-|---------------------|
A|----------------------|-0-2-3-4-0-2-3-4--|-555---------------------|-33------3--3---33-5-|
E|----------------------|------------------|-------------------------|---530--------3------|

Bridge

Verse 3 (2:22)
G|-----|---------------------|---------------------|-----------------------|---------------------|
D|-----|------5---5-5--------|---------------------|-----------------------|-------------------5-|
A|-5320|---5----5-----7-5-7--|-22---2---2-2---2-02-|-33-------3-3--------3-|-55---5---5-55--57--7|
E|-----|3------------------5-|----2---2-----2------|----5-3-5-----5-33-5---|----5---5------------|

G|---------------------|---------------------|---------------------|--------------------------|
D|-55-------5-5--------|--------4------------|---------------------|--------------------------|
A|----7-5-7-----7-557--|-22---2---2-2---2023-|-3-------3-3--------3|-55---5---5-5---5-4-5-6-7-|
E|-------------------5-|----2---------2------|---5-3-5-----5-0h3-5-|----5---5-----5-----------|

Chorus 2 (2:49)
G|-------------------------|---------------|-------------------|-----------------------|
D|-------------------------|-------77------|----------------5--|-55---------------0--2-|
A|-7--5-7--5-7--5-7--5-----|-234-----------|-5-5-5---5-5--57-7-|----7-5-7-----2--3-----|
E|--------------------765>-|5----5----57585|------75-----------|----------3--3---------|

G|-----------------------|------------------|-----4-2---------4-2-----|-----------------------|
D|--2-0h22-0h22-0h22-020-|------------------|---------4-0---0-----4-0-|-----------------------|
A|-----------------------|-0-2-3-4-0-2-3-4--|-5-5---------------------|-3>--------3-3----33-5-|
E|-----------------------|------------------|-------------------------|----5--3-------3-------|

Outro (3:15)
G|--------------------|-------------------|-------------------|--------------------|------|
D|-5--5------5--5---5-|2--2------2----2-0-|-------------------|--------------------|---5--|
A|------5--5------5---|-----2--2----2-----|3--3------3--2-3-4-|-5-5----5----5----5-|-57-7-|
E|--------------------|-------------------|-----3--3----------|------5----5----5---|------|

G|--------------------|-------------------|-------------------|--------------------|------|
D|-5--5------5----5-4-|2--2------2--x-2-0-|-------------------|--------------------|------|
A|------5--5----5-----|-----2--2----------|3--3------3--2-3-4-|-5-5----5----5----5-|-5353-|
E|--------------------|-------------------|-----3--3----------|------5----5----5---|------|

G|--------------------|------------------|-------------------|-----------------|------|
D|-5--5------5----5-4-|2--2----2-2---2-0-|-------------------|-----------------|---5--|
A|------5--5----5-----|-----2---2-2------|0h3--0----3x--3--4-|5----5----5----5-|-57-7-|
E|--------------------|------------------|-------3----3------|---5----5----5---|------|
Suggest correction
What's this?
You can suggest a correction to this tab. Community and Mods will review your correction and vote to approve or reject it.
comments
print report bad tab
1 comment total.
0 reply
SaintofLA 35 wrote on November 18 2011, 08:18 pm

Sure, not absolutly percise, but its pretty damn close. :D

guest
You may want to rate the tab now too:
select rating
Please do not post tabs as comments. Select "correction" instead!