Oops, an error
Loading. Please wait.

Dont Go Breaking My Heart Bass Tab

version 1
version 1

Whole song

Interactive

8,761 views 18 this week
1 commentread comment
1 2 3 4 5
accurate
x 3
add to favorites
launch autoscroll
font size
0
reset
guitar tuner
Autoscroll
slow
fast
+/-
esc
set tempo
stop
Help us to improve Ultimate-Guitar.com Take our survey!
×
-------------------------------------------------------------------------------
			     Don’t Go Breaking My Heart – Elton John
-------------------------------------------------------------------------------

Tabbed By : Milford Cubicle
e-mail:

Tuning: Standard

Intro
G|---------------------------------------------------------------------------|
D|---3-----------------------------------------------------------------------|
A|--------3-4-5-----5-4-3-1----1-2-3-----------------------------------------|
E|-----------------------------------5-3-1-------1--1------1--1-------1--1---|

Verse
Don’t go breaking my heart...
G|-------------------------------------------------------------------------|
D|-------------------------------------------------------------------------|
A|-------------------------------------------------------------------------| X 2
E|---1--1--1--1---1-3-5-6---6--1--1-5--5-6--6-7--7-8--8--7--5-6---5-6---8--|

Ooh ooh nobody knows it...
G|--------------------------------------------|
D|--------------------------------------------|
A|-------------------------------1------3-----|
E|---5--5---5--5---3--3---3--3------1------3--|

G|-------------------------------------------------------------------------|
D|-------------------------------------------------------------------------|
A|-------------------------------1------3----------------------------------|
E|---5--5---5--5---3--3---3--3------1------3---4---5----6---5-6---5-6--—8--|

Chorus:
Don’t go breaking my heart...
G|---------------------------------------------------------------------------|
D|---3-----------------------------------------------------------------------|
A|--------3-4-5-----5-4-3-1----1-2-3-0---------3-4-5----3--1----1-2-3--------|
E|-------------------------------------3-1----------------------------5-3-1--|


| /  slide up
| \  slide down
| h  hammer-on
| p  pull-off
| ~  vibrato
| +  harmonic
| x  Mute note
===============================================================================
Suggest correction
Give kudos to tab author, rate the tab!
1 2 3 4 5
comments
print report bad tab
1 comment total.
0 reply
cmano13 722 wrote on June 22 2014, 07:01 am

Lack of accuracy.

guest
You may want to rate the tab now too:
select rating
Please do not post tabs as comments. Select "correction" instead!