Oops, an error
Loading. Please wait.

Goodbye Yellow Brick Road Tab

version 1
version 1

Whole song

Interactive

3,099 views 1 this week
no commentswrite comment
1 2 3 4 5
please rate
add to favorites
launch autoscroll
font size
0
reset
how to read this tab
guitar tuner
Tab Pro tools
  • play this tab
  • loop segment
  • change instrument
  • show fretboard
  • metronome
×
Best way to learn
"Goodbye Yellow Brick Road"
Autoscroll
slow
fast
+/-
esc
set tempo
stop
Contributor
Difficulty
intermediate
Elton John
Goodbye Yellow Brick Roads

       Q     Q    Q     Q     
A#||--11-----9----7-----7----|
F ||--12----11----7----11----|
C#||--11----11----8----11----|
G#||--13----11----9----13----|
D#||-------------------13----|
A#||-------------------------|


   |-3-| |-3-| |-3-| |-3-| |-3-| |--3-|  |--3-|  |-3-|  
   S S S S S S S S S S S S S S S S S  S  S S  S  S S S  
---------------7-L-6-L-L-L-7----------L--------------L-|
---9---------L-7-L-7-----L-7----------L----------------|
---9-L-L-L-L-L-6-L-6-----L-8----------L-20-L---------L-|
---9-------L-9-----4-------9-L-L-L-L--L------21--------|
--11---------L-9-L-------L-----------21---------21-L-L-|
-------------------------------------------------------|


                 |-3-| |-3-|                                                
  Q    Q    Q    S S S S S S    Q    Q    Q    Q       Q    Q    Q    Q     
-------0----6----6-L-6-L-L-L-|-------2----4----4----|-------0----2----0----|
--2----2----7----7-L-------L-|--4---------5----4----|--2----2----2----2----|
--1----1----6----6-6-------L-|--4----4----4----4----|--2----2----3----3----|
--2---------8----8-L-L-----L-|--4----4----2----2----|--2---------4----4----|
--4----4----9----9---L-----L-|--2----2--------------|--0----0--------------|
-----------------------------|----------------------|----------------------|


         |-3-| |-3-|                                                          
  E   E  S S S S S S Q    Q       Q    Q    Q    Q       Q    Q    Q    Q     
---------2-L-L-----7------2----|--0----0----2----0----|-------2----4----4----|
--4---L--4-L-L-------7----7----|--0----0----2----2----|--4----4----5----5----|
--4------4-L-L-8-L-L-8----8----|-------1----3----3----|--4----4----4----4----|
--4--------------L-L-9----L----|--6----2----4----4----|--4---------2---------|
--2---L--2-L-L-----------------|--4-------------------|--2----2---------6----|
-----19----------L-L-7----7----|----------------------|----------------------|


  Q    Q    Q    Q       Q    Q    Q    Q        Q     Q     Q    Q     
-------0----0----0----|----------------------|--15-----------9----L----|
--2----2----7----7----|--0---------7----7----|--15----12----10----L----|
--2----2----6----6----|--8----8----8----8----|--16----12----12----L----|
--2---------8----8----|-------9----9----9----|--17----12----11----L----|
--0----0----9----9----|--9----9----9----9----|--------10----12----L----|
----------------------|--7----7----7----7----|--15-----------5----9----|


   Q     Q     Q       Q        Q     Q     Q     Q     
--10-----9-----7-------7----|--15----12----14----12----|
--10----10-----8-------8----|--12----12----14----14----|
--11----11-----7-------7----|--12----12----15----15----|
--12----12-----9-------9----|--14----14----16----16----|
--------------10----0g10----|--------------------------|
--10----10------------------|--12----12----14----14----|


   Q     Q     Q     Q        Q     Q     Q     Q     
--------11-----9-----9----|--12----------------------|
--16----16----11----11----|--12----------16----16----|
--16----16----12----12----|--13----13----16----16----|
--16----------13----13----|--14----14----16----16----|
--14----14----------------|--------14----14----------|
--------------11----11----|--------12----------18----|


   Q     Q     Q     Q        Q     Q     Q     S  S  S  S  
--------------------------|--14----14----------------------|
--16----19----17----------|--17----17----16----16--L-16--L-|
--17----17----------18----|--18----18----16----16--L-16--L-|
--16----18----18----18----|--20----20----16----16--L-16-14-|
--------------16----16----|--21----16----14----14-16-18--L-|
--16----16----------------|--------------------------------|


                                                               |-3-| |-3-|  
   Q     Q     Q     Q        Q     Q     Q     Q        Q     S S S S S S  
--------------------------|--------------------------|--15-----------------|
--16----------11----------|---------------0----12----|--15-----0-L-2-L-L-L-|
--16----16----12----12----|--13----13----12----12----|--16-----0-L-2-------|
--18----18----13----13----|--14----14----12----12----|--------12-L-2-----L-|
--------18----------13----|--14----14----10----------|---------------------|
--16----16----11----11----|--12----12----------------|---------------------|


  Q    Q     Q     Q        Q    E   E      Q     Q     Q    Q     
--2----2-----7-----7----|---7----7---0--|--15-----------9----L----|
--4----4----------------|---5----7---2--|--15----12----10----L----|
--4----3-----8-----8----|--13----9--11--|--16----12----12----L----|
------------------18----|---9----4---4--|--17----12----11----L----|
--2----1----23----------|---7-------26--|--------10----12----L----|
-------------4-----2----|--------2---2--|--15-----------5----9----|


   Q     Q     Q       Q        Q     Q     Q     Q     
--10-----9-----7-------7----|--15----12----14----12----|
--10----10-----8-------8----|--12----12----14----14----|
--11----11-----7-------7----|--12----12----15----15----|
--12----12-----9-------9----|--14----14----16----16----|
--------------10----0g10----|--------------------------|
--10----10------------------|--12----12----14----14----|


                                            |-3-| |-3-|                         
  E  E   E   E   H           Q    Q    Q    S S S S S S    Q    Q    Q    Q     
--2--7--11--14--19--------|-------0----6----6-L-6-L-L-L-|-------2----4----4----|
--0-----------------------|--2----2----7----7-L-------L-|--4---------5----4----|
--8-----------------------|--1----1----6----6-6-------L-|--4----4----4----4----|
--------------------------|--2---------8----8-L-L-----L-|--4----4----2----2----|
--2-----------------------|--4----4----9----9---L-----L-|--2----2--------------|
--------------------------|-----------------------------|----------------------|


                                |-3-| |-3-|                                   
  Q    Q    Q    Q       E   E  S S S S S S Q    Q       Q    Q    Q    Q     
-------0----2----0----|---------2-L-L-----7------2----|--0----0----2----0----|
--2----2----2----2----|--4---L--4-L-L-------7----7----|--0----0----2----2----|
--2----2----3----3----|--4------4-L-L-8-L-L-8----8----|-------1----3----3----|
--2---------4----4----|--4--------------L-L-9----L----|--6----2----4----4----|
--0----0--------------|--2---L--2-L-L-----------------|--4-------------------|
----------------------|-----19----------L-L-7----7----|----------------------|


  Q    Q    Q    Q       Q    Q    Q    Q       Q    Q    Q    Q     
-------2----4----4----|-------0----0----0----|----------------------|
--4----4----5----5----|--2----2----7----7----|--0---------7----7----|
--4----4----4----4----|--2----2----6----6----|--8----8----8----8----|
--4---------2---------|--2---------8----8----|-------9----9----9----|
--2----2---------6----|--0----0----9----9----|--9----9----9----9----|
----------------------|----------------------|--7----7----7----7----|


   Q     Q     Q    Q        Q     Q     Q       Q     
--15-----------9----L----|--10-----9-----7-------7----|
--15----12----10----L----|--10----10-----8-------8----|
--16----12----12----L----|--11----11-----7-------7----|
--17----12----11----L----|--12----12-----9-------9----|
--------10----12----L----|--------------10----0g10----|
--15-----------5----9----|--10----10------------------|


   Q     Q     Q     Q        Q     Q     Q     Q     
--15----12----14----12----|--------11-----9-----9----|
--12----12----14----14----|--16----16----11----11----|
--12----12----15----15----|--16----16----12----12----|
--14----14----16----16----|--16----------13----13----|
--------------------------|--14----14----------------|
--12----12----14----14----|--------------11----11----|


   Q     Q     Q     Q        Q     Q     Q     Q     
--12----------------------|--------------------------|
--12----------16----16----|--16----19----17----------|
--13----13----16----16----|--17----17----------18----|
--14----14----16----16----|--16----18----18----18----|
--------14----14----------|--------------16----16----|
--------12----------18----|--16----16----------------|


   Q     Q     Q     S  S  S  S     Q     Q     Q     Q     
--14----14----------------------|--------------------------|
--17----17----16----16--L-16--L-|--16----------11----------|
--18----18----16----16--L-16--L-|--16----16----12----12----|
--20----20----16----16--L-16-14-|--18----18----13----13----|
--21----16----14----14-16-18--L-|--------18----------13----|
--------------------------------|--16----16----11----11----|


                                    |-3-| |-3-|                           
   Q     Q     Q     Q        Q     S S S S S S    Q    Q     Q     Q     
--------------------------|--15-----------------|--2----2-----7-----7----|
---------------0----12----|--15-----0-L-2-L-L-L-|--4----4----------------|
--13----13----12----12----|--16-----0-L-2-------|--4----3-----8-----8----|
--14----14----12----12----|--------12-L-2-----L-|------------------18----|
--14----14----10----------|---------------------|--2----1----23----------|
--12----12----------------|---------------------|-------------4-----2----|


   Q    E   E      Q     Q     Q    Q        Q     Q     Q       Q     
---7----7---0--|--15-----------9----L----|--10-----9-----7-------7----|
---5----7---2--|--15----12----10----L----|--10----10-----8-------8----|
--13----9--11--|--16----12----12----L----|--11----11-----7-------7----|
---9----4---4--|--17----12----11----L----|--12----12-----9-------9----|
---7-------26--|--------10----12----L----|--------------10----0g10----|
--------2---2--|--15-----------5----9----|--10----10------------------|


   Q     Q     Q     Q       W                              
--15----12----14----12----|--2----------------|-----------||
--12----12----14----14----|--0----------------|-----------||
--12----12----15----15----|--8----------------|-----------||
--14----14----16----16----|-------------------|-----------||
--------------------------|--2----------------|-----------||
--12----12----14----14----|-------------------|-----------||




Duration Legend
---------------
W - whole
H - half
Q - quarter
E - 8th
S - 16th
T - 32nd
X - 64th
. - note dotted
|-n-|  - n-tuplets


Tablature Legend
----------------
L - tied note
x - dead note
g - grace note
(n) - ghost note
> - accentuded note
NH - natural harmonic
AH - artificial harmonic
TH - tapped harmonic
SH - semi harmonic
PH - pitch harmonic
h - hammer on
p - pull off
b - bend
br - bendRelease
pb - preBend
pbr - preBendRelease
brb - bendReleaseBend
\n/ - tremolo bar dip
\n - tremolo bar dive
-/n - tremolo bar Release up
/n\ - tremolo bar inverted dip
/n - tremolo bar return
-\n - tremolo bar Release down
S - shift slide
s - legato slide
/ -  slide into from below or out of upwards
\ -  slide into from above or out of downwards
~ - vibrato
W - wide vibrato
tr - trill
TP - tremolo picking
T - tapping
S - slap
P - pop
< - fade in
^ - brush up
v - brush down
comments
We did not receive enough feedback on this tab! Please rate:
print report bad tab
1 2 3 4 5
I want to post or [tab]
guest
You may want to rate the tab now too:
select rating
Please do not post tabs as comments. Select "correction" instead!