Oops, an error
Loading. Please wait.

Grey Seal bass

19 views 1 this week
no commentswrite comment
1 2 3 4 5
2 more votes to show rating
add to favorites
×
Save as Personal and add changes to this tab that will be seen only by you. Learn more ›
×
You can save this tab as Personal to edit and correct it or add notes. All changes will be seen only by you. Learn more »
launch autoscroll
font size
0
reset
guitar tuner
edit
Autoscroll
slow
fast
+/-
esc
set tempo
stop
4/4
[Intro]                                                                   
G|--------------------------------|--------------------------------|
D|--------------------------------|--------------------------------|
A|2---2-------------------------2-|2---2-----------------------2-2-|
E|--------------------------------|--------------------------------|
 
                                                                    
G|--------------------------------|--------------------------------|
D|--------------------------------|--------------------------------|
A|2---2---------------------------|2---2---------------------------|
E|--------------------------------|--------------------------------|
 
                                                                    
G|--------------------------------|------------------------4-------|
D|--------------------------------|--------------------4-----2-----|
A|2---2-------------------------2-|2---2---------------------------|
E|--------------------------------|----------------------------5---|
 
                                                                    
G|--------------------------------|--------------------------------|
D|--------------------------------|--------------------------------|
A|2---2---------------------------|2---2---------------------------|
E|--------------------------------|--------------------------------|
 
                                                                    
G|--------------------------------|--------------------------------|
D|--------------------------------|--------------------------------|
A|2-------------------------------|0-------------------------------|
E|----------------2---------------|----------------0---------------|
 
                                                                    
G|--------------------------------|--------------------------------|
D|--------------------------------|--------------------------------|
A|2-------------------------------|--------------------------------|
E|--------------------------------|--------------------------------|
 
[Verse]                                                                   
G|--------------------------------|--------------------------------|
D|2---2-----------0-----0---------|--------------------------------|
A|--------------------------------|--------------------------------|
E|----------------------------3---|----------------3-------3---4---|
 
                                                    
G|--------------------------------|----------------|
D|--------------------------------|------------0---|
A|0---------------2---------------|2---3-----------|
E|--------------------------------|----------------|
 
                                  [Chorus]                                  
G|--------------------------------|--------------------------------|
D|--------------------------------|0---------------0-0-0---0---1---|
A|--------------------------------|--------------------------------|
E|--------------------------------|--------------------------------|
 
                                                                    
G|--------------------------------|--------------------------------|
D|--------2-------0-------0-------|--------------------------------|
A|--------------------------------|--------------------------------|
E|0-----------0---------------3---|----------------3-3-0---0---3---|
 
                                                    
G|--------------------------------|----------------|
D|--------------------------------|------------0---|
A|0---------------2---------------|2---3-----------|
E|--------------------------------|----------------|
 
                                                                    
G|--------------------------------|--------------------------------|
D|--------------------------------|--------------------------------|
A|--------------------------------|0---------------2---------------|
E|--------------------------------|--------------------------------|
 
                                                    
G|----------------|--------------------------------|
D|------------0---|--------------------------------|
A|2---3-----------|--------------------------------|
E|----------------|--------------------------------|
 
                                  [Verse]                                  
G|--------------------------------|--------4-----------------------|
D|--------------------------------|--------------------------------|
A|--------------------------------|2-----2-----2---2---2-------2---|
E|--------------------------------|------------------------------2-|
 
                                                                    
G|--------3-3-3-------3---3-------|--------------------------------|
D|--------------------------3-----|--------------------------------|
A|--------------------------------|0-------0---0---0---0---0-0-----|
E|2---------------------------2---|----------------------------0---|
 
                                                                    
G|--------------------------------|--------------------------------|
D|--------------------------------|----------------------------0---|
A|------------------------0---0---|2-------2-2-----2-2-2---2-2---2-|
E|0-----0-0---0---4---4-----------|--------------------------------|
 
                                                                    
G|--------------------------------|--------------------------------|
D|----------------4-4-4-4-3-------|--------------------------------|
A|--------------------------5-3-1-|0-------0-------0-------0-------|
E|2-------------------------------|--------------------0-------0---|
 
                                                                    
G|----------------------1---2-----|--------------------------------|
D|----------------2---------------|--------------------------------|
A|------------------------------0-|2-------------------------------|
E|0-------0-0-------4-------------|----------------2---------------|
 
                                                                    
G|--------------------------------|--------------------------------|
D|--------------------------------|--------------------------------|
A|0-------------------------------|2-------------------------------|
E|----------------0---------------|--------------------------------|
 
                                                                    
G|--------------------------------|3---4---------------------------|
D|--------------------------------|------------4---5---------------|
A|--------------------------------|------------------------4---5---|
E|--------------------------------|--------------------------------|
 
                                                                    
G|--------------------------------|--------------------------------|
D|--------------------------------|--------------------------------|
A|2-------3-----------------------|1---2-------------------4---5---|
E|--------------------------------|------------2---3---------------|
 
                                                                    
G|--------------------------------|--------------------------------|
D|--------------------------------|2---2-----------0-----0---------|
A|2---0-2-3-----------------------|--------------------------------|
E|--------------------------------|----------------------------3---|
 
                                                                    
G|--------------------------------|--------------------------------|
D|--------------------------------|--------------------------------|
A|--------------------------------|0---------------2---------------|
E|----------------3-------3---4---|--------------------------------|
 
                                                    
G|----------------|--------------------------------|
D|------------0---|--------------------------------|
A|2---3-----------|--------------------------------|
E|----------------|--------------------------------|
 
[Verse]                                                                   
G|--------------------------------|--------------------------------|
D|0---------------0-0-0---0---1---|--------2-------0-------0-------|
A|--------------------------------|--------------------------------|
E|--------------------------------|0-----------0---------------3---|
 
                                                                    
G|--------------------------------|--------------------------------|
D|--------------------------------|--------------------------------|
A|--------------------------------|0---------------2---------------|
E|----------------3-3-0---0---3---|--------------------------------|
 
                                                    
G|----------------|--------------------------------|
D|------------0---|--------------------------------|
A|2---3-----------|--------------------------------|
E|----------------|--------------------------------|
 
                                                    
G|--------------------------------|----------------|
D|--------------------------------|------------0---|
A|0---------------2---------------|0---------------|
E|--------------------------------|----3-----------|
 
                                                                    
G|--------------------------------|--------------------------------|
D|--------------------------------|--------------------------------|
A|--------------------------------|--------------------------------|
E|--------------------------------|--------------------------------|
 
[Chorus]                                                                  
G|--------------------------------|--------------------3---6-3-----|
D|--------------------------------|--------------------------------|
A|2-----------------------2-2-2---|--------------------------------|
E|--------------------------------|2-------2---6-----------------6-|
 
                                                                    
G|----------------2-1---0-----0---|------------------9-9-9-9-------|
D|--------------------2---2-------|--------------------------------|
A|0-------0-----------------------|----------------------------7-9-|
E|--------------------------------|0-0-----0-0---------------------|
 
                                                                    
G|--------------------------------|------------------------3-3-----|
D|--------------------------------|----------------------------3-3-|
A|2-------2---2---2-2-2-2-2-------|1-----------1---1---------------|
E|----------------------------3---|--------------------2-----------|
 
                                                                    
G|----------------2-2-2-----------|--------1-1---1-----------------|
D|------------------------2-2-----|--------------------------------|
A|0-------------------------------|------------------------0---0---|
E|--------------------------------|4---------------4---4-4---------|
 
                                                                    
G|--------------------------------|--------------------------------|
D|--------------------------------|--------------------------------|
A|2-------------------------------|0-------------------------------|
E|----------------2---------------|----------------0---------------|
 
                                                                    
G|--------------------------------|--------------------------------|
D|--------------------------------|--------------------------------|
A|2-------------------------------|--------------------------------|
E|--------------------------------|--------------------------------|
 
[Bridge]                                                                    
G|3---4---------------------------|--------------------------------|
D|------------4---5---------------|--------------------------------|
A|------------------------4---5---|2-------3-----------------------|
E|--------------------------------|--------------------------------|
 
                                                                    
G|--------------------------------|--------------------------------|
D|--------------------------------|--------------------------------|
A|1---2-------------------4---5---|2---0-2-3-----------------------|
E|------------2---3---------------|--------------------------------|
 
                                                                    
G|--------9---------------7-------|0---------------------------1---|
D|--------------------------------|--------------------------------|
A|7-----7---------------------9---|--------------------------------|
E|------------10------10----10----|--------3-----3-3---3---4-------|
 
                                                    
G|2---2---2-------4-----------4---|----------------|
D|--------------------------------|------------0---|
A|--------------------2---2-----2-|2---3-----------|
E|------------5-------------------|----------------|
 
                                                                    
G|--------------------------------|10-10-9-9-7---------------------|
D|0---0---0---0---0---0---0---0---|------------10--7---------------|
A|--------------------------------|--------------------7-----------|
E|--------------------------------|------------------------11--11--|
 
                                                                    
G|--------------------------------|----------------0---------------|
D|--------2-2-2---0---0---0-0-0---|------------------2-0-----------|
A|--------------------------------|----------------------2-0-------|
E|0-------------------------------|3-------3-3---------------3-0-3-|
 
                                                    
G|--------------------------------|----------------|
D|--------------------------------|------------0---|
A|0-------0-------2-------2-----2-|2---3-----------|
E|--------------------------------|----------------|
 
                                                                    
G|--------------------------------|--------2---------------4-------|
D|----0---0---0---0---0---0---0---|--------------------------------|
A|--------------------------------|--------------2-------2-----2---|
E|--------------------------------|5-----5-------------------------|
 
                                                    
G|----------------|--------------------------------|
D|------------0---|----------------0-------0-------|
A|2-2-3---3-------|--------------------------------|
E|----------------|--------------------------------|
 
[Chorus]                                                                    
G|--------------------------------|--------4-----------------------|
D|0-------0-------0-0-0---0-0-0-0-|----------------1---2-----------|
A|--------------------------------|2-----------------------2-------|
E|--------------------------------|----------------------------1---|
 
                                                                    
G|----------------3-4---3---1-----|--------2---2---2---2-----------|
D|----4-4-----------------4---4---|--------------------------0-----|
A|--------------------------------|0-----------------------4-------|
E|2-------------------------------|--------------------------------|
 
                                                                    
G|--------------------9-7---------|--------8-9-8-----6-------------|
D|--------------------------------|----------------9---9-----6-----|
A|--------7---7---7-------7-8-9---|------------------------9---9-6-|
E|0-------------------------------|7-------------------------------|
 
                                                                    
G|--------------------------------|------2-------2-------2-----2---|
D|--------4---------4-------------|--------------------------------|
A|--------------------------------|0-------------------------------|
E|2-----------2---2---2---2---4---|--------------------------------|
 
                                                                    
G|----9---------------------------|--------------------------------|
D|--------------------------------|--------------------------------|
A|--------7-----0---------0------|2-------------------------------|
E|0---------10-7--3-0-3-----7-8-6-|----------------2---------------|
 
                                                                    
G|--------------------------------|--------------------------------|
D|--------------------------------|--------------------------------|
A|0-------------------------------|2-------------------------------|
E|----------------0---------------|--------------------------------|
 
[Outro]                                                                   
G|--------------------------------|--------------------------------|
D|--------------------------------|0-------0-------0---0---0---0---|
A|--------------------------------|--------------------------------|
E|--------------------------------|--------------------------------|
 
                                                                    
G|--------------------------------|--------------------------------|
D|0-------0-----------------------|0-------0-------0-------0-------|
A|--------------0-3---3---2---2---|--------------------------------|
E|--------------------------------|--------------------------------|
 
                                                                    
G|--------------------------------|--------------------------------|
D|0-------0-----------------------|0-------0-------0---0---0---0---|
A|--------------0-3---3---2---2---|--------------------------------|
E|--------------------------------|--------------------------------|
 
                                                                    
G|--------------------------------|--------------------------------|
D|0-------0-----------------------|0-------0-------0-------0-------|
A|--------------0-3---3---2---2---|--------------------------------|
E|--------------------------------|--------------------------------|
 
                                                                    
G|--------------------------------|--------------------------------|
D|0-------0-----------------------|0-------0-------0---0---0---0---|
A|--------------0-3---3---2---2---|--------------------------------|
E|--------------------------------|--------------------------------|
 
                                                                    
G|--------------------------------|--------------------------------|
D|0-------0-----------------------|0-------0-------0-------0-------|
A|--------------0-3---3---2---2---|--------------------------------|
E|--------------------------------|--------------------------------|
 
                                                                    
G|--------------------------------|--------------------------------|
D|0-------0-----------------------|0-------0-------0---0---0---0---|
A|--------------0-3---3---2---2---|--------------------------------|
E|--------------------------------|--------------------------------|
 
                                                                    
G|--------------------------------|--------------------------------|
D|0-------0-----------------------|0-------0-------0-------0-------|
A|--------------0-3---3---2---2---|--------------------------------|
E|--------------------------------|--------------------------------|
 
                                                                    
G|--------------------------------|--------------------------------|
D|0-------0-----------------------|0-------0-------0---0---0---0---|
A|--------------0-3---3---2---2---|--------------------------------|
E|--------------------------------|--------------------------------|
 
                                                                    
G|--------------------------------|--------------------------------|
D|0-------0-----------------------|0-------0-------0-------0-------|
A|--------------0-3---3---2---2---|--------------------------------|
E|--------------------------------|--------------------------------|
 
                                                                    
G|--------------------------------|
D|0-------0-----------------------|
A|--------------0-3---3---2---2---|
E|--------------------------------|
Suggest correction
Creating personal tab
Creating personal tab
You can edit any tab online and save it as your Personal.

You can edit, replace or remove any tab part or add personal notes – all changes will be seen only by you.

Personal tabs can be accessed anytime from any device, even offline.
Learn more »
Give kudos to tab author, rate the tab!
1 2 3 4 5
comments
print report bad tab
guest
You may want to rate the tab now too:
select rating
Wanna post a correction for this tab? Suggest correction