Oops, an error
Loading. Please wait.

High-Flying Bird Bass Tab

570 views 1 this week
no commentswrite comment
1 2 3 4 5
please rate
add to favorites
launch autoscroll
font size
0
reset
guitar tuner
Tab Pro tools
  • play this tab
  • loop segment
  • change instrument
  • show fretboard
  • metronome
×
Best way to learn
"High-flying Bird"
Autoscroll
slow
fast
+/-
esc
set tempo
stop
Contributor
Difficulty
novice
Here's a tab I didn't see anybody anywhere on the internet have, so I decided to load it 
It's not perfect, but whatever.

Intro:
G|--------------------------|
D|---------------4---4------|      x2
A|-----------------4---4----|
E|-9/4-4-4-4-4-4------------|

Verse
G|-----------------------------------------------------------------------|
D|------------------------------------------1-1-1---1-1------------------|
A|-------------2h3h4-4-4-4-4—-4p3---------4-------1-----4-1-1---1-1--3-4-|
E|-8/4-4-4-4-4--------------------4-4-4-4---------------------1----------|

                                                                           x2
G|-----------|
D|-----------|      (In second verse, don’t play this)
A|---4-3-1---|
E|-4-------4-|

Chorus:
G|---------------------------(pause)----------------------------------|
D|----------------------------------------------------1---------------|
A|---4-3-1--------1-3-4----4---------4-3-1----1-1-1-3------4-3-3-1----|
E|-4-------4--4-4--------4------------------4------------4---------4--|


G|-------------------------------------------|
D|-------------------------------------------|
A|-------1-3-4----4-3-1---1--------4-3-1-----|
E|-4-4-4--------4-------4---4-2--4-------4---|

Interlude:
G|------------|
D|-4---4------|
A|---4---4----|
E|------------|

Outro:
G|-----------------------------|
D|-----------------------------|   x3
A|-----------2h3h4-4-4-4-4p3---|
E|-4-4-4-4-4----------------4--|


G|-------------------------------------------------------|
D|-------------------------------------------------------|
A|-----------2h3h4-4-4-4-4----4---3---1------------------|
E|-4-4-4-4-4----------------4---4---4---4----------------|


Order:
Intro
Verse
Chorus
Interlude
Verse (third line improvision)
Chorus x2 (third line improvision)
Interlude
Outro
comments
We did not receive enough feedback on this tab! Please rate:
print report bad tab
1 2 3 4 5
I want to post or [tab]
guest
You may want to rate the tab now too:
select rating
Please do not post tabs as comments. Select "correction" instead!