Oops, an error
Loading. Please wait.

Honky Cat bass

25 views 3 this week
no commentswrite comment
1 2 3 4 5
2 more votes to show rating
add to favorites
×
Save as Personal and add changes to this tab that will be seen only by you. Learn more ›
×
You can save this tab as Personal to edit and correct it or add notes. All changes will be seen only by you. Learn more »
launch autoscroll
font size
0
reset
guitar tuner
edit
Autoscroll
slow
fast
+/-
esc
set tempo
stop
4/4
                                   [VERSE]                            
G|--------------------------------|--------------------------------|
D|--------------------------------|0-------0-----------------------|
A|--------------------------------|----------------2---0-----------|
E|--------------------------------|--------------------------------|
 
                                                                    
G|--------------------------------|--------------------------------|
D|----0-------0-------------------|0-------0-----------------------|
A|----------------2---0---2---0---|----------------2-0-------------|
E|--------------------------------|--------------------------------|
 
                                                                    
G|--------------------------------|0-------0-----------------------|
D|----0-----0---------0-----------|----------------2---0-----------|
A|------------------------2---0---|--------------------------------|
E|--------------------------------|--------------------------------|
 
                                                                    
G|----0-------0-------0-----------|0-------0-----------------------|
D|------------------------2---0---|----------------2---0-----------|
A|--------------------------------|--------------------------------|
E|--------------------------------|--------------------------------|
 
                                                                    
G|----0---------------0-----------|--------------------------------|
D|------------0-------------------|0-------0-----------------------|
A|--------------------------------|----------------2---0-----------|
E|----------------3-------3-------|--------------------------------|
 
                                                                    
G|--------------------------------|--------------------------------|
D|----0-------0-------------------|0-------0-----------------------|
A|----------------2---0---2-0-----|----------------2---0-----------|
E|--------------------------------|--------------------------------|
 
                                                                    
G|--------------------------------|0-------0-----------------------|
D|----0-------0-----0-------------|----------------2---0-----------|
A|------------------------2---0---|--------------------------------|
E|--------------------------------|--------------------------------|
 
                                                                    
G|--0---------0-------------------|0-------0-----------------------|
D|--------------------2---0-2-----|----------------2-0-------------|
A|--------------------------------|--------------------------------|
E|--------------------------------|--------------------------------|
 
                                   [CHORUS]                           
G|--0---------0-------0-----------|--------------------------------|
D|------------------------2---0---|--------------------------------|
A|--------------------------------|2-------2-----------------2-----|
E|--------------------------------|--------------------------------|
 
                                                                    
G|--------------------------------|--------------------------------|
D|--------------------------------|--------------------------------|
A|----2-------------------2-------|2-------2---------2---------2---|
E|------------2-------2-------2---|------------------------2-------|
 
                                                                    
G|--------------------------------|--------------------------------|
D|--------------------1-----------|2-------2-------------------2---|
A|----2-----------2---------------|--------------------2-----------|
E|------------2-------------------|--------------------------------|
 
                                                                    
G|--------------------------------|--------------------------------|
D|------------------------2-------|2-------2-----------2-----------|
A|--------------------------------|--------------------------------|
E|--------------------0-------0---|--------------------------------|
 
                                                                    
G|--------------------------------|--------------------------------|
D|2-----------2-------------------|0-------0-------------------0---|
A|------------------------2-------|----------------2---0-----------|
E|----0---------------0-------0---|--------------------------------|
 
                                                                    
G|--------------------------------|--------------------------------|
D|------------0-------0-----------|0-------0-------------------0---|
A|------------------------2---0---|----------------2---0-----------|
E|--------------------------------|--------------------------------|
 
                                                                    
G|--------------------------------|0-0-----------------------------|
D|----0-------------------0-------|--------2-------0---------------|
A|------------2-------0-------0---|--------------------------------|
E|--------------------------------|----------------------------3---|
 
                                                                    
G|--------------------------------|--0-----------------------------|
D|--------------------------------|--------2-------0-------2-------|
A|------------0-----------3-------|--------------------------------|
E|----3---------------3-------3---|----------------------------3---|
 
                                                                    
G|------------------------0-------|--------------------------------|
D|--------------------------------|--------------------------------|
A|--------------------------------|2-------2-----------------2-----|
E|--3-------3---------3-------3---|--------------------------------|
 
                                                                    
G|--------------------------------|--------------------------------|
D|--------------------------------|--------------------------------|
A|----2-------------------2-------|2-------2---------2---------2---|
E|------------2-------2-------2---|------------------------2-------|
 
                                                                    
G|--------------------------------|--------------------------------|
D|--------------------1-----------|2-------2-------------------2---|
A|----2-----------2---------------|--------------------2-----------|
E|------------2-------------------|--------------------------------|
 
                                                                    
G|--------------------------------|--------------------------------|
D|------------------------2-------|2-------2-----------2-----------|
A|--------------------------------|--------------------------------|
E|--------------------0-------0---|--------------------------------|
 
                                                                    
G|--------------------------------|--------------------------------|
D|2-----------2-------------------|0-------0-------------------0---|
A|------------------------2-------|----------------2---0-----------|
E|----0---------------0-------0---|--------------------------------|
 
                                                                    
G|--------------------------------|--------------------------------|
D|------------0-------0-----------|0-------0-------------------0---|
A|------------------------2---0---|----------------2---0-----------|
E|--------------------------------|--------------------------------|
 
                                                                    
G|--------------------------------|0-0-----------------------------|
D|----0-------------------0-------|--------2-------0---------------|
A|------------2-------0-------0---|--------------------------------|
E|--------------------------------|----------------------------3---|
 
                                                                    
G|--------------------------------|--0-----------------------------|
D|--------------------------------|--------2-------0-------2-------|
A|------------0-----------3-------|--------------------------------|
E|----3---------------3-------3---|----------------------------3---|
 
                                   [VERSE]                            
G|------------------------0-------|--------------------------------|
D|--------------------------------|0-------0-----------------------|
A|--------------------------------|----------------2---0-----------|
E|--3-------3---------3-------3---|--------------------------------|
 
                                                                    
G|--------------------------------|--------------------------------|
D|----0-------0-------------------|0-------0-----------------------|
A|----------------2---0---2---0---|----------------2-0-------------|
E|--------------------------------|--------------------------------|
 
                                                                    
G|--------------------------------|0-------0-----------------------|
D|----0-----0---------0-----------|----------------2---0-----------|
A|------------------------2---0---|--------------------------------|
E|--------------------------------|--------------------------------|
 
                                                                    
G|----0-------0-------0-----------|0-------0-----------------------|
D|------------------------2---0---|----------------2---0-----------|
A|--------------------------------|--------------------------------|
E|--------------------------------|--------------------------------|
 
                                                                    
G|----0---------------0-----------|--------------------------------|
D|------------0-------------------|0-------0-----------------------|
A|--------------------------------|----------------2---0-----------|
E|----------------3-------3-------|--------------------------------|
 
                                                                    
G|--------------------------------|--------------------------------|
D|----0-------0-------------------|0-------0-----------------------|
A|----------------2---0---2-0-----|----------------2---0-----------|
E|--------------------------------|--------------------------------|
 
                                                                    
G|--------------------------------|0-------0-----------------------|
D|----0-------0-----0-------------|----------------2---0-----------|
A|------------------------2---0---|--------------------------------|
E|--------------------------------|--------------------------------|
 
                                                                    
G|--0---------0-------------------|0-------0-----------------------|
D|--------------------2---0-2-----|----------------2-0-------------|
A|--------------------------------|--------------------------------|
E|--------------------------------|--------------------------------|
 
                                   [CHORUS]                           
G|--0---------0-------0-----------|--------------------------------|
D|------------------------2---0---|--------------------------------|
A|--------------------------------|2-------2-----------------2-----|
E|--------------------------------|--------------------------------|
 
                                                                    
G|--------------------------------|--------------------------------|
D|--------------------------------|--------------------------------|
A|----2-------------------2-------|2-------2---------2---------2---|
E|------------2-------2-------2---|------------------------2-------|
 
                                                                    
G|--------------------------------|--------------------------------|
D|--------------------1-----------|2-------2-------------------2---|
A|----2-----------2---------------|--------------------2-----------|
E|------------2-------------------|--------------------------------|
 
                                                                    
G|--------------------------------|--------------------------------|
D|------------------------2-------|2-------2-----------2-----------|
A|--------------------------------|--------------------------------|
E|--------------------0-------0---|--------------------------------|
 
                                                                    
G|--------------------------------|--------------------------------|
D|2-----------2-------------------|0-------0-------------------0---|
A|------------------------2-------|----------------2---0-----------|
E|----0---------------0-------0---|--------------------------------|
 
                                                                    
G|--------------------------------|--------------------------------|
D|------------0-------0-----------|0-------0-------------------0---|
A|------------------------2---0---|----------------2---0-----------|
E|--------------------------------|--------------------------------|
 
                                                                    
G|--------------------------------|0-0-----------------------------|
D|----0-------------------0-------|--------2-------0---------------|
A|------------2-------0-------0---|--------------------------------|
E|--------------------------------|----------------------------3---|
 
                                                                    
G|--------------------------------|--0-----------------------------|
D|--------------------------------|--------2-------0-------2-------|
A|------------0-----------3-------|--------------------------------|
E|----3---------------3-------3---|----------------------------3---|
 
                                   [BREAK]                            
G|------------------------0-------|--------------------------------|
D|--------------------------------|0-------0-------------------0---|
A|--------------------------------|----------------2---0-----------|
E|--3-------3---------3-------3---|--------------------------------|
 
                                                                    
G|--------------------------------|--------------------------------|
D|------------0-------0-----------|0-------0-------------------0---|
A|------------------------2---0---|----------------2---0-----------|
E|--------------------------------|--------------------------------|
 
                                                                    
G|--------------------------------|0-0-----------------------------|
D|----0-------------------0-------|--------2-------0---------------|
A|------------2-------0-------0---|--------------------------------|
E|--------------------------------|----------------------------3---|
 
                                                                    
G|--------------------------------|--0-----------------------------|
D|--------------------------------|--------2-------0-------2-------|
A|------------0-----------3-------|--------------------------------|
E|----3---------------3-------3---|----------------------------3---|
 
                                                                    
G|------------------------0-------|--------------------------------|
D|--------------------------------|0-------0-------------------0---|
A|--------------------------------|----------------2---0-----------|
E|--3-------3---------3-------3---|--------------------------------|
 
                                                                    
G|--------------------------------|--------------------------------|
D|------------0-------0-----------|0-------0-------------------0---|
A|------------------------2---0---|----------------2---0-----------|
E|--------------------------------|--------------------------------|
 
                                                                    
G|--------------------------------|0-0-----------------------------|
D|----0-------------------0-------|--------2-------0---------------|
A|------------2-------0-------0---|--------------------------------|
E|--------------------------------|----------------------------3---|
 
                                                                    
G|--------------------------------|--0-----------------------------|
D|--------------------------------|--------2-------0-------2-------|
A|------------0-----------3-------|--------------------------------|
E|----3---------------3-------3---|----------------------------3---|
 
                                   [CHORUS]                           
G|------------------------0-------|--------------------------------|
D|--------------------------------|--------------------------------|
A|--------------------------------|2-------2-----------------2-----|
E|--3-------3---------3-------3---|--------------------------------|
 
                                                                    
G|--------------------------------|--------------------------------|
D|--------------------------------|--------------------------------|
A|----2-------------------2-------|2-------2---------2---------2---|
E|------------2-------2-------2---|------------------------2-------|
 
                                                                    
G|--------------------------------|--------------------------------|
D|--------------------1-----------|2-------2-------------------2---|
A|----2-----------2---------------|--------------------2-----------|
E|------------2-------------------|--------------------------------|
 
                                                                    
G|--------------------------------|--------------------------------|
D|------------------------2-------|2-------2-----------2-----------|
A|--------------------------------|--------------------------------|
E|--------------------0-------0---|--------------------------------|
 
                                                                    
G|--------------------------------|--------------------------------|
D|2-----------2-------------------|0-------0-------------------0---|
A|------------------------2-------|----------------2---0-----------|
E|----0---------------0-------0---|--------------------------------|
 
                                                                    
G|--------------------------------|--------------------------------|
D|------------0-------0-----------|0-------0-------------------0---|
A|------------------------2---0---|----------------2---0-----------|
E|--------------------------------|--------------------------------|
 
                                                                    
G|--------------------------------|0-0-----------------------------|
D|----0-------------------0-------|--------2-------0---------------|
A|------------2-------0-------0---|--------------------------------|
E|--------------------------------|----------------------------3---|
 
                                                                    
G|--------------------------------|--0-----------------------------|
D|--------------------------------|--------2-------0-------2-------|
A|------------0-----------3-------|--------------------------------|
E|----3---------------3-------3---|----------------------------3---|
 
                                   [VERSE]                            
G|------------------------0-------|--------------------------------|
D|--------------------------------|0-------0-----------------------|
A|--------------------------------|----------------2---0-----------|
E|--3-------3---------3-------3---|--------------------------------|
 
                                                                    
G|--------------------------------|--------------------------------|
D|----0-------0-------------------|0-------0-----------------------|
A|----------------2---0---2---0---|----------------2-0-------------|
E|--------------------------------|--------------------------------|
 
                                                                    
G|--------------------------------|0-------0-----------------------|
D|----0-----0---------0-----------|----------------2---0-----------|
A|------------------------2---0---|--------------------------------|
E|--------------------------------|--------------------------------|
 
                                                                    
G|----0-------0-------0-----------|0-------0-----------------------|
D|------------------------2---0---|----------------2---0-----------|
A|--------------------------------|--------------------------------|
E|--------------------------------|--------------------------------|
 
                                                                    
G|----0---------------0-----------|--------------------------------|
D|------------0-------------------|0-------0-----------------------|
A|--------------------------------|----------------2---0-----------|
E|----------------3-------3-------|--------------------------------|
 
                                                                    
G|--------------------------------|--------------------------------|
D|----0-------0-------------------|0-------0-----------------------|
A|----------------2---0---2-0-----|----------------2---0-----------|
E|--------------------------------|--------------------------------|
 
                                                                    
G|--------------------------------|0-------0-----------------------|
D|----0-------0-----0-------------|----------------2---0-----------|
A|------------------------2---0---|--------------------------------|
E|--------------------------------|--------------------------------|
 
                                                                    
G|--0---------0-------------------|0-------0-----------------------|
D|--------------------2---0-2-----|----------------2-0-------------|
A|--------------------------------|--------------------------------|
E|--------------------------------|--------------------------------|
 
                                   [CHORUS]                           
G|--0---------0-------0-----------|--------------------------------|
D|------------------------2---0---|--------------------------------|
A|--------------------------------|2-------2-----------------2-----|
E|--------------------------------|--------------------------------|
 
                                                                    
G|--------------------------------|--------------------------------|
D|--------------------------------|--------------------------------|
A|----2-------------------2-------|2-------2---------2---------2---|
E|------------2-------2-------2---|------------------------2-------|
 
                                                                    
G|--------------------------------|--------------------------------|
D|--------------------1-----------|2-------2-------------------2---|
A|----2-----------2---------------|--------------------2-----------|
E|------------2-------------------|--------------------------------|
 
                                                                    
G|--------------------------------|--------------------------------|
D|------------------------2-------|2-------2-----------2-----------|
A|--------------------------------|--------------------------------|
E|--------------------0-------0---|--------------------------------|
 
                                                                    
G|--------------------------------|--------------------------------|
D|2-----------2-------------------|0-------0-------------------0---|
A|------------------------2-------|----------------2---0-----------|
E|----0---------------0-------0---|--------------------------------|
 
                                                                    
G|--------------------------------|--------------------------------|
D|------------0-------0-----------|0-------0-------------------0---|
A|------------------------2---0---|----------------2---0-----------|
E|--------------------------------|--------------------------------|
 
                                                                    
G|--------------------------------|0-0-----------------------------|
D|----0-------------------0-------|--------2-------0---------------|
A|------------2-------0-------0---|--------------------------------|
E|--------------------------------|----------------------------3---|
 
                                                                    
G|--------------------------------|--0-----------------------------|
D|--------------------------------|--------2-------0-------2-------|
A|------------0-----------3-------|--------------------------------|
E|----3---------------3-------3---|----------------------------3---|
 
                                                                    
G|------------------------0-------|--------------------------------|
D|--------------------------------|--------------------------------|
A|--------------------------------|2-------2-----------------2-----|
E|--3-------3---------3-------3---|--------------------------------|
 
                                                                    
G|--------------------------------|--------------------------------|
D|--------------------------------|--------------------------------|
A|----2-------------------2-------|2-------2---------2---------2---|
E|------------2-------2-------2---|------------------------2-------|
 
                                                                    
G|--------------------------------|--------------------------------|
D|--------------------1-----------|2-------2-------------------2---|
A|----2-----------2---------------|--------------------2-----------|
E|------------2-------------------|--------------------------------|
 
                                                                    
G|--------------------------------|--------------------------------|
D|------------------------2-------|2-------2-----------2-----------|
A|--------------------------------|--------------------------------|
E|--------------------0-------0---|--------------------------------|
 
                                                                    
G|--------------------------------|--------------------------------|
D|2-----------2-------------------|0-------0-------------------0---|
A|------------------------2-------|----------------2---0-----------|
E|----0---------------0-------0---|--------------------------------|
 
                                                                    
G|--------------------------------|--------------------------------|
D|------------0-------0-----------|0-------0-------------------0---|
A|------------------------2---0---|----------------2---0-----------|
E|--------------------------------|--------------------------------|
 
                                                                    
G|--------------------------------|0-0-----------------------------|
D|----0-------------------0-------|--------2-------0---------------|
A|------------2-------0-------0---|--------------------------------|
E|--------------------------------|----------------------------3---|
 
                                                                    
G|--------------------------------|--0-----------------------------|
D|--------------------------------|--------2-------0-------2-------|
A|------------0-----------3-------|--------------------------------|
E|----3---------------3-------3---|----------------------------3---|
 
                                   [TAG]                              
G|------------------------0-------|--------------------------------|
D|--------------------------------|0-------0-------------------0---|
A|--------------------------------|----------------2---0-----------|
E|--3-------3---------3-------3---|--------------------------------|
 
                                                                    
G|--------------------------------|--------------------------------|
D|------------0-------0-----------|0-------0-------------------0---|
A|------------------------2---0---|----------------2---0-----------|
E|--------------------------------|--------------------------------|
 
                                                                    
G|--------------------------------|0-0-----------------------------|
D|----0-------------------0-------|--------2-------0---------------|
A|------------2-------0-------0---|--------------------------------|
E|--------------------------------|----------------------------3---|
 
                                                                    
G|--------------------------------|--0-----------------------------|
D|--------------------------------|--------2-------0-------2-------|
A|------------0-----------3-------|--------------------------------|
E|----3---------------3-------3---|----------------------------3---|
 
                                                                    
G|------------------------0-------|--------------------------------|
D|--------------------------------|0-------0-------------------0---|
A|--------------------------------|----------------2---0-----------|
E|--3-------3---------3-------3---|--------------------------------|
 
                                                                    
G|--------------------------------|--------------------------------|
D|------------0-------0-----------|0-------0-------------------0---|
A|------------------------2---0---|----------------2---0-----------|
E|--------------------------------|--------------------------------|
 
                                                                    
G|--------------------------------|0-0-----------------------------|
D|----0-------------------0-------|--------2-------0---------------|
A|------------2-------0-------0---|--------------------------------|
E|--------------------------------|----------------------------3---|
 
                                                                    
G|--------------------------------|--0-----------------------------|
D|--------------------------------|--------2-------0-------2-------|
A|------------0-----------3-------|--------------------------------|
E|----3---------------3-------3---|----------------------------3---|
 
                                                                    
G|------------------------0-------|--------------------------------|
D|--------------------------------|0-------0-------------------0---|
A|--------------------------------|----------------2---0-----------|
E|--3-------3---------3-------3---|--------------------------------|
 
                                                                    
G|--------------------------------|--------------------------------|
D|------------0-------0-----------|0-------0-------------------0---|
A|------------------------2---0---|----------------2---0-----------|
E|--------------------------------|--------------------------------|
 
                                                                    
G|--------------------------------|0-0-----------------------------|
D|----0-------------------0-------|--------2-------0---------------|
A|------------2-------0-------0---|--------------------------------|
E|--------------------------------|----------------------------3---|
 
                                                                    
G|--------------------------------|--0-----------------------------|
D|--------------------------------|--------2-------0-------2-------|
A|------------0-----------3-------|--------------------------------|
E|----3---------------3-------3---|----------------------------3---|
 
                                                                    
G|------------------------0-------|--------------------------------|
D|--------------------------------|0-------0-------------------0---|
A|--------------------------------|----------------2---0-----------|
E|--3-------3---------3-------3---|--------------------------------|
 
                                                                    
G|--------------------------------|--------------------------------|
D|------------0-------0-----------|0-------0-------------------0---|
A|------------------------2---0---|----------------2---0-----------|
E|--------------------------------|--------------------------------|
 
                                                                    
G|--------------------------------|0-0-----------------------------|
D|----0-------------------0-------|--------2-------0---------------|
A|------------2-------0-------0---|--------------------------------|
E|--------------------------------|----------------------------3---|
 
                                                                    
G|--------------------------------|--0-----------------------------|
D|--------------------------------|--------2-------0-------2-------|
A|------------0-----------3-------|--------------------------------|
E|----3---------------3-------3---|----------------------------3---|
 
                                                                    
G|------------------------0-------|--------------------------------|
D|--------------------------------|--------------------------------|
A|--------------------------------|--------------------------------|
E|--3-------3---------3-------3---|3-------------------------------|

            
            
Suggest correction
Creating personal tab
Creating personal tab
You can edit any tab online and save it as your Personal.

You can edit, replace or remove any tab part or add personal notes – all changes will be seen only by you.

Personal tabs can be accessed anytime from any device, even offline.
Learn more »
Give kudos to tab author, rate the tab!
1 2 3 4 5
comments
print report bad tab
guest
You may want to rate the tab now too:
select rating
Wanna post a correction for this tab? Suggest correction