Oops, an error
Loading. Please wait.

I Fall Apart Bass Tab

31 views 1 this week
no commentswrite comment
1 2 3 4 5
3 more votes to show rating
add to favorites
launch autoscroll
font size
0
reset
guitar tuner
Autoscroll
slow
fast
+/-
esc
set tempo
stop
Help us to improve Ultimate-Guitar.com Take our survey!
×
Author
Difficulty
novice
* This song should use the fretless bass


[Verse 1]
G|----------------|----------------|----------------|----------------|
D|--9-------------|----------------|--9-------------|----------------|
A|----------------|----------------|----------------|----------------|
E|----------------|----------------|----------------|----------------|

G|----------------|----------------|----------------|----------------|
D|--6-------------|----------------|---5------------|----------------|
A|----------------|----------------|-7--------------|----------------|
E|----------------|----------------|----------------|----------------|

G|----------------|-------6--8--|----------------|----------------|
D|----------------|--4----------|----------------|------9-/11--\9-|
A|----------------|-------------|----------------|----------------|
E|--7-------------|-------------|--7-------------|----------------|

G|---------------|----------------|----------------|----------------|
D|-6-------------|----------------|---5------------|----------------|
A|---------------|----------------|-7--------------|----------------|
E|---------------|----------------|----------------|----------------|

[Chorus]
G|----------------|--------9---\-|----------------|--------12---\-|
D|----------------|--------------|----------------|---------------|
A|--3-------------|----10--------|-3--------------|---/10---------|
E|----------------|--------------|----------------|---------------|

G|---------------|----------------|-7--------------|---------------------------|
D|---------------|------------5-/-|----------------|--7---(9-7-------(7--------|
A|---------------|----------------|----------------|-----------10)------10-9)--|
E|-7-----------\-|-0--------------|----------------|---------------------------|

G|----------------|---------------|----------------|----------------|--------------|
D|----------------|---------------|--6-------------|----------------|--------------|
A|----------------|-5-/7-8--------|----------------|--9-------------|--------------|
E|----------------|---------------|----------------|----------------|--------------|

[Verse 2]
G|----------------|---------------|---------------|----------------|
D|----------------|-------11--13\-|---------------|------9-/11--\9-|
A|----------------|--9------------|---------------|----------------|
E|--7-------------|---------------|-7-------------|----------------|

G|---------------|--------9------|----------------|----------------|
D|-6-------------|----/9------9\-|-5--------------|----------------|
A|---------------|---------------|----------------|----------------|
E|---------------|---------------|----------------|----------------|

G|----------------|---------------|---------------|----------------|
D|----------------|-------11--13\-|---------------|------9-/11--\9-|
A|----------------|--9------------|---------------|----------------|
E|--7-------------|---------------|-7-------------|----------------|

G|----------------|----------------|----------------|---------7--|
D|-6--------------|----------------|----------------|----7-/9----|
A|----------------|--------------7-|-9-10-----------|------------|
E|----------------|----------------|----------------|------------|

[Chorus]
G|----------------|--------9---\-|----------------|--------12---\-|
D|----------------|--------------|----------------|---------------|
A|--3-------------|----10--------|-3--------------|----10---------|
E|----------------|--------------|----------------|---------------|

G|----------------|----------------|-7--------------|--------9---------------|
D|----------------|------------5-/-|----------------|--10-12---12-10-9-------|
A|----------------|----------------|----------------|------------------12-10-|
E|-7--------------|--0-------------|----------------|------------------------|

G|----------------|---------------|----------------|----------------|--------------|--------------|
D|----------------|---------------|----------------|--6-------------|--------------|--------------|
A|-9--------------|---------------|--8-------------|----------------|--9-----------|--------------|
E|----------------|---------------|----------------|----------------|--------------|--------------|

[Bridge]
G|----------------|-------------|-----------------|--------------|---------------|
D|----------------|-------------|-----------------|--------------|---------------|
A|----------------|-------------|-----------------|--------------|---------------|
E|--4-------------|----11/16----|-\4--------------|----11-/13----|--11-----------|

G|---------------|----------------|----------------|
D|---------------|----------------|----------------|
A|---------------|----------------|----------------|
E|------------9\-|-2--------------|----------------|

G|----------------|----------------|----------------|----------------|
D|----------------|----------------|----------------|----------------|
A|----------------|----------------|-2-2------------|--2-------------|
E|--1-------------|-1-1------------|----------------|----------------|

                                                        +   +
G|----------------|----------------|----------------|--19--16----\-|
D|----------------|--6-----------/-|-17-------------|--------------|
A|--8-------------|----------------|----------------|--------------|
E|----------------|----------------|----------------|--------------|

[Chorus]
G|---------------|--------9----|-----------------|--------12---\-|
D|---------------|-------------|-----------------|---------------|
A|-3-------------|---/10-------|--3--------------|---/10---------|
E|---------------|-------------|-----------------|---------------|

G|---------------|----------------|-7--------------|--5-------|
D|---------------|------------5-/-|----------------|-------9--|
A|---------------|----------------|----------------|----------|
E|-7-----------\-|-0--------------|----------------|----------|

G|----------14-11----------------|----------------|----------------|----------------|----------------|
D|----------------12-------------|----------------|--6-------------|----------------|--------3-2-0---|
A|--12------------------12-9-----|--8-------------|----------------|--10------------|--------------2-|
E|---------------------------10--|----------------|----------------|----------------|----------------|

G|---------------|--------9----|-----------------|--------12---\-|
D|---------------|-------------|-----------------|---------------|
A|-3-------------|---/10-------|--3--------------|---/10---------|
E|---------------|-------------|-----------------|---------------|

G|---------------|----------------|-7--------------|-----------------------------|
D|---------------|------------5-/-|----------------|--7---(9-7-------(7----------|
A|---------------|----------------|----------------|-----------10)------10-9)----|
E|-7-----------\-|-0--------------|----------------|-----------------------------|

G|-------7------|---------------|----------------|----------------|--------------|
D|-0-7-4---7-4--|--3------------|--6-------------|--5-------------|--------5---2-|
A|--------------|---------------|----------------|----------------|----------5---|
E|--------------|---------------|----------------|----------------|--------------|

[Outro]
G|---------------|--------9----|-----------------|---------------9-12--|
D|---------------|-------------|-----------------|---------10-12-------|
A|-3-------------|---/10-------|--3--------------|--10/12--------------|
E|---------------|-------------|-----------------|---------------------|

G|----------------|---------------|-7--------------|--------9---------------|
D|----------------|-----------5-/-|----------------|--10-12---12-10-9-------|
A|----------------|---------------|----------------|------------------12-10-|
E|--7-----------\-|-0-------------|----------------|------------------------|

                                                                                       +   +
G|----------------|--7-------------|----------------|----------------|--------------|--19--16----\-|
D|-------------7--|----------------|----------------|--6-------------|--5-----------|--------------|
A|-9--------------|----------------|--8-------------|----------------|--------------|--------------|
E|----------------|----------------|----------------|----------------|--------------|--------------|

G|---------------|--------9----|-----------------|--9-/10-\9--|
D|---------------|-------------|-----------------|------------|
A|-3-------------|---/10-------|--3--------------|------------|
E|---------------|-------------|-----------------|------------|

                                                                       (fade out)
G|---------------|------9-/10-\9--|----------------|-----------------------------|
D|---------------|----------------|----------------|--7---(9-7-------(7----------|
A|---------------|----------------|----------------|-----------10)------10-9)----|
E|-7-----------\-|-0--------------|----------------|-----------------------------|


******************************

| / : slide up
| \ : slide down
| + : harmonic
| ( ) : fast

******************************

in regular sequence!
Suggest correction
Give kudos to tab author, rate the tab!
1 2 3 4 5
comments
print report bad tab
guest
You may want to rate the tab now too:
select rating
Wanna post a correction for this tab? Suggest correction