Oops, an error
Loading. Please wait.

I Think Im Going To Kill Myself bass

73 views 6 this week
no commentswrite comment
1 2 3 4 5
3 more votes to show rating
add to favorites
×
Save as Personal and add changes to this tab that will be seen only by you. Learn more ›
×
You can save this tab as Personal to edit and correct it or add notes. All changes will be seen only by you. Learn more »
launch autoscroll
font size
0
reset
guitar tuner
edit
Autoscroll
slow
fast
+/-
esc
set tempo
stop
Author
Difficulty
Intro
G|---------------------------------|---------------------------------|
D|---------------------------------|-------------------------------6h|
A|---------------------------------|---------------------------------|
E|---------------------------------|---------------------------------|

Verse 1 :
G|---------------------------------|---------------------------------|
D|7---------------6h7--------------|--------4h5-------------4h5--4---|
A|--------6h7-------------6h7--5---|3---------------2h3---------5----|
E|---------------------------------|---------------------------------|

G|---------------------------------|---------------------------------|
D|3---------------2h3----------3---|---------------------------------|
A|--------2h3-------------2h3------|5-------5-5-----5-5---5---5---5--|
E|---------------------------------|---------------------------------|

G|---------------------------------|---------------------------------|
D|7---------------6h7--------------|--------4h5-------------4h5--4---|
A|--------6h7-------------0---2----|3---------------2h3--------------|
E|---------------------------------|---------------------------------|

G|---------------------------------|---------------------------------|
D|3---------------2h3----------3---|--------7------------------------|
A|--------2h3-------------2h3------|5-----5-----5-/-7---7---7---5----|
E|---------------------------------|---------------------------------|

Chorus :
G|---------------------------------|---------------------------------|
D|--------5---5-----------5--------|--------7---7-----------7---6----|
A|3---3--3--------3---3--3----3-/--|5---5--5--------5---5--5---------|
E|---------------------------------|---------------------------------|

G|---------------------------------|---------------------------------|
D|5---5--5--------5---5--5----5-\--|3---3---2-----------5---7---9----|
A|--------5---5-----------5--------|------------5---3----------------|
E|---------------------------------|---------------------------------|

G|---------------------------------|---------------------------------|
D|--------5---5-----------5--------|--------7---7-----------7---6----|
A|3---3--3--------3---3--3----3-/--|5---5--5--------5---5--5---------|
E|---------------------------------|---------------------------------|

G|---------------------------------|---------------------------------|
D|5---5-----------5---5-------5----|3---3--32------------------------|
A|--------5---5-----------5--------|------------5---3-----------/----|
E|---------------------------------|---------------------------------|

G|---------------------------------|---------------------------------|
D|---------------------------------|--------5-------3----------------|
A|15----------15--12---------------|---------------------------------|
E|---------------------------------|---------------------------------|

G|---------------------------------|--------9------------------------|
D|---------------------------------|-------------------------------6h|
A|--------7-------5----------------|7--------------------------------|
E|---------------------------------|---------------------------------|

Verse 2 :
G|---------------------------------|---------------------------------|
D|7---------------6h7--------------|--------4h5-------------4h5--4---|
A|--------6h7-------------6h7--5---|3---------------2h3--------------|
E|---------------------------------|---------------------------------|

G|---------------------------------|--------------------7---7---7----|
D|3---------------2h3----------3---|------------------7------------6h|
A|--------2h3-------------2h3------|5-------5-5-----5------------5---|
E|---------------------------------|---------------------------------|

G|---------------------------------|---------------------------------|
D|7---7----------------------------|--------4h5--------------------2h|
A|--------6h7-------------6h7------|3---------------2h3-----2-3------|
E|----------------4h5--------------|---------------------------------|

G|---------------------------------|------------------9-9-9-9-9-9-9--|
D|3-------2h3-------------2h3--3---|--------7------------------------|
A|----------------2h3--------------|5-----5-----5-/-7----------------|
E|---------------------------------|---------------------------------|

Chorus :
G|---------------------------------|---------------------------------|
D|--------5---5-----------5--------|--------7---7-----------7---6----|
A|3---3--3--------3---3--3----3-/--|5---5--5--------5---5--5---------|
E|---------------------------------|---------------------------------|

G|---------------------------------|---------------------------------|
D|5---5-----------5---5--5----5-\--|3---3---2------------------------|
A|--------5---5-----------5--------|------------5---3-------0---2----|
E|---------------------------------|--------------------3------------|

G|----------------5----------------|----------------7--7-------------|
D|--------5---5--------------------|--------7---7--7------------2h3--|
A|3---3--------------53---3---3-4--|5---5---------------5---5--------|
E|---------------------------------|---------------------------------|

G|---------------------------------|---------------------------------|
D|5---5-----------5---5-------5-4--|3---3--57---9--------------------|
A|-------05---5----------05--------|----------------3-----------/----|
E|---------------------------------|---------------------------------|

G|----5---7---11--14---------------|--------12------10---------------|
D|---------------------------------|---------------------------------|
A|---------------------------------|---------------------------------|
E|---------------------------------|---------------------------------|

G|----14--12--12-----------------8h|9------------\--|
D|---------------------------------|----------------| * 4 instead of 8
A|----------------5----------------|----------------|
E|---------------------------------|----------------|

Solo :
G|---------------------------------|---------------------------------|
D|---------------------------------|--------------------------------3|
A|3---3----------23---3---3-------4|5---5----------35---5---5---5----|
E|--------3---3----------3---------|--------5---5--------------------|

G|---------------------------------|---------------------------------|
D|5---5----------35---5-------5-4--|3---3---2------------------------|
A|--------5---5-----------5--------|------------5---3-----------2----|
E|---------------------------------|--------------------3---3--------|

G|----------------5--5-------------|----------------7----------------|
D|--------5---5--5-----------------|--------7---7--7------------4----|
A|3---3---------------3---5---7----|5---5---------------5---7--------|
E|---------------------------------|---------------------------------|

G|---------------------------------|---------------------------------|
D|5---5-----------5---5-------5-4--|3---3---2------------------------|
A|--------5---5-----------5--------|------------5---3----------------|
E|---------------------------------|---------------------------------|

G|5--------------------------------|---------------------------------|
D|---------------------------------|7--------------------------------|
A|---------------------------------|---------------------------------|
E|----------------5----------------|----------------1----------------|

G|---------------------------------|----9---9---9--|
D|3--------------------------------|---------------| * 4 instead of 8
A|------------7---5----------------|7--------------|
E|---------------------------------|---------------|

Chorus (outro) :
G|5--------------------------------|---------------------------------|
D|----7---5------------------------|---------------------------------|
A|------------7---5---3---2---0---0|5---------------0---2---3---4----|
E|---------------------------------|----2---3---4--------------------|

G|---------------------------------|---------------------------------|
D|-3--5---5---3---2----------------|---------------------------------|
A|5-5-----------------5---3---2---0|8---0---1---2------------------/-|
E|---------------------------------|----------------0---1---2---3----|

G|--------5---4--------------------|--------7---7---5---4---4--------|
D|----5-----------7---5------------|----7----------------------------|
A|3-----------------------7---6----|5---------------------------0----|
E|---------------------------------|---------------------------------|

G|---------------------------------|---------------------------------|
D|---------------------------------|---------------------------------|
A|3--------------------------------|---------------------------------|
E|---------------------------------|---------------------------------|

            
            
Suggest correction
Creating personal tab
Creating personal tab
You can edit any tab online and save it as your Personal.

You can edit, replace or remove any tab part or add personal notes – all changes will be seen only by you.

Personal tabs can be accessed anytime from any device, even offline.
Learn more »
Give kudos to tab author, rate the tab!
1 2 3 4 5
comments
print report bad tab
guest
You may want to rate the tab now too:
select rating
Wanna post a correction for this tab? Suggest correction