Oops, an error
Loading. Please wait.

Little Jeannie bass

version 1
version 1

Whole song

Interactive

79 views 1 this week
no commentswrite comment
1 2 3 4 5
3 more votes to show rating
add to favorites
×
Save as Personal and add changes to this tab that will be seen only by you. Learn more ›
×
You can save this tab as Personal to edit and correct it or add notes. All changes will be seen only by you. Learn more »
launch autoscroll
font size
0
reset
guitar tuner
edit
Autoscroll
slow
fast
+/-
esc
set tempo
stop
Author
Difficulty
[Intro]
G|-----------|-----------|-----------|-----------|
D|-----------|-----------|-----------|-----------|
A|-----------|-----------|-----------|-----------|
E|-6---6-6---|-6---6-6---|-5---5-5---|-5---5-5---|

G|-----------|-----------|-----------|-----------|
D|-----------|-----------|-----------|-----------|
A|-----------|-----------|-5---5-5---|-5---5-5---|
E|-3---3-3---|-3---3-3---|-----------|-----------|

G|-----------|------------|------------|------------|
D|-----------|------------|------------|------------|
A|-6---6-6---|-6---6-6---\|------------|------------|
E|-----------|------------|-1---1-1--1-|-1---1-1---3|

[Verse 1]
G|-----------|-----------|-----------|------------|
D|-----------|-----------|-----------|------------|
A|-1---1-1---|-1---1-1---|-1---1-1---|-1---0-----0|
E|-----------|-----------|-----------|---------1--|

G|-----------|-------------|------------|--------------|
D|-----------|-------------|------------|--------------|
A|-----------|-------------|------------|--------------|
E|-3---3-3---|-3---3--3-1-3|-3---3-3---3|-3---3-3-3-1-3|

G|-----------|--------------|------------|-----------|-----------|-------------|
D|-1---1-1---|-1---1-1-0-1-2|-3---3-3----|-----------|-----------|-------------|
A|-----------|--------------|------------|-----------|-----------|-------------|
E|-----------|--------------|-----------1|-3---3-3---|-5---5-5---|-5---5-5-3-1-|

G|-----------|-----------|-----------|-----------|
D|-----------|-----------|-----------|-----------|
A|-1---1-1---|-1---1-1---|-1---1-1---|-1---0-----|
E|-----------|-----------|-----------|----------1|

G|-----------|------------|-----------|-------------|
D|-----------|------------|-----------|-------------|
A|-----------|-----------1|-----------|-------------|
E|-3---3-3---|-3---3--1---|-3---3-3---|-3---3-3--1-3|

G|-----------|-------------|-----------|-----------|-----------|------------|
D|-1---1-1---|-1---1-1--2-3|-----------|-----------|-----------|------------|
A|-----------|-------------|-----------|-----------|-----------|------------|
E|-----------|-------------|-1---1-1---|-3---3-3---|-5---5-5---|-5---5-5---6|

[Chorus]
G|-----------|-----------|------------|------------|-----------|-----------|
D|-----------|-----------|------------|------------|-----------|-----------|
A|-6---6-6---|-----------|------------|-6---6-6---8|-----------|-----------|
E|-----------|-6---6-6---|-6---6-6---8|------------|-6---6-6---|-6---6-6--5|

G|------------|-------------|-----------|-------------|
D|------------|-----------3-|-----------|-------------|
A|------------|---------3---|-----------|-------------|
E|-3---3-3---3|-1---1-1-----|-0---0-0---|-0---0-0-6-8-|

G|-----------|--------------|-----------|-----------|
D|-----------|--------------|-----------|-----------|
A|-6---6-6---|-6---6-6-5-6-7|-8---8-8---|-----------|
E|-----------|--------------|-----------|-1---1-1---|

[Verse 2]
G|-----------|------------|------------|------------|
D|-----------|------------|------------|------------|
A|-1---1-1---|-1---1-1----|-1---1-1----|-1---0-----0|
E|-----------|-----------1|-----------1|---------1--|

G|-----------|-------------|-----------|-------------|
D|-----------|-------------|-----------|-------------|
A|-----------|-------------|-----------|-----------1-|
E|-3---3-3---|-3---3-3--1-3|-3---3-3---|-3---3-1-3---|

G|-----------|--------------|------------|-----------|-----------|-------------|
D|-1---1-1---|-1---1-1-0-1-2|-3----------|-----------|-----------|-------------|
A|-----------|--------------|------------|-----------|-----------|------------1|
E|-----------|--------------|-----1-1---1|-3---3-3---|-5---5-5---|-5---5-5-5---|

G|------------|-------------|------------|-----------|
D|------------|-------------|------------|-----------|
A|--1--1-1----|-1---1-1-----|-1---1-1----|-1---0-----|
E|-----------1|---------3-1-|-----------1|----------1|

G|-----------|------------|-----------|-----------|
D|-----------|------------|-----------|-----------|
A|-----------|----------1-|-----------|-----------|
E|-3---3-3---|-3---3-1----|-3---3-3---|-3---3-3---|

G|-----------|--------------|------------|-------------|-----------|--------------|
D|-1---1-1---|-1---1-1-0-1-2|-3----------|-------------|-----------|--------------|
A|-----------|--------------|------------|-------------|-----------|-----------1-3|
E|-----------|--------------|-----1-1---1|-3-3--3-3---3|-5---5-5---|-5---3-1-3----|

[Chorus]
G|------------|-----------|-----------|-------------|------------|------------|
D|------------|-----------|-----------|-------------|------------|------------|
A|-6---6-6---8|-----------|-----------|-6---6-6--6-8|------------|-1----0-----|
E|------------|-6---6-6---|-6---6-6---|-------------|-6---6-6---1|---------1-2|

G|------------|-------------|------------------------|
D|------------|-----------3-|----------5/17----------|
A|------------|---------3---|------------------------|
E|-3---3-3---3|-1---1-1-----|-0---0-0----------0-0---|

G|------------|---------------|-----------|-------------|
D|------------|---------------|-----------|-3-----------|
A|-6---6-6----|-6-6--6-6-5-6-7|-8---------|-------------|
E|-----------6|---------------|-----1-1---|-----1-1-3--3|

[Instrumental]
G|-----------|------------|------------|------------|
D|-----------|------------|------------|------------|
A|-1---1-1---|-1---1-1----|-1---1-1----|-1---0------|
E|-----------|-----------1|-----------1|---------1-2|

G|-----------|-----------|-----------|--------------|
D|-----------|-----------|-----------|--------------|
A|-----------|-----------|-----------|-----------1-3|
E|-3---3-3---|--3-1-----2|-3---3-3---|-3---3-1-3----|

G|------------|--------------|------------|------------|-----------|-------------|
D|-1---1-1----|-1---------3--|------------|------------|-----------|-------------|
A|-----------1|-----1---1---1|------------|------------|-----------|-------------|
E|------------|-------3------|-1---1-1---1|-3---3-3---3|-5---5-5---|-5---5-5-3-1-|

[Chorus]
G|------------|-----------|-----------|------------|------------|--------------|
D|------------|-----------|-----------|------------|------------|--------------|
A|-6---6-6---8|-----------|-----------|-6---6-6---8|------------|-1---1-1-0----|
E|------------|-6---6-6---|-6---6-6---|------------|-6---6-6---1|-----------1-2|

G|------------|-------------|----------------------|
D|------------|-----------3-|----------5/17--------|
A|------------|---------3---|----------------------|
E|-3---3-3---0|-1---1-1-----|-0---0-0--------------|

G|------------|-------------|-----------|-------------|
D|------------|-------------|-----------|-------------|
A|-6---6-6----|-6---6-6--6-7|-8---8-8---|-------------|
E|-----------6|-------------|-----------|-1---1-1-3--3|

[Outro]
G|-----------|---------------|-----------|-------------|
D|-----------|---------------|-----------|-------------|
A|-1---1-1---|-1---1-1------1|-0---0-0---|-0---0-0-----|
E|-----------|----------(1)--|-----------|----------1-1|

G|-----------|-------------|-----------|--------------|
D|-----------|-------------|-----------|--------------|
A|-----------|------------3|-5---5-5---|-5---5-5---3-5|
E|-3---3-3---|-3---3-3--6--|-----------|---------5----|

G|-----------|------------|-----------|--------------|
D|-----------|------------|-----------|--------------|
A|-6---6-6---|-6---6-6---\|-----------|-------------0|
E|-----------|------------|-1---1-1---|--1--1-1-3-1--|

G|------------|---------------|-----------|--------------|
D|------------|---------------|-----------|--------------|
A|-1---1-1----|-1-1--1-1-----1|-0---0-0---|-0-0--0-0--0-0|
E|-----------1|----------1-3--|-----------|--------------|

G|-----------|------------|--------------|-------------|
D|-----------|------------|--------------|-------------|
A|-----------|----------1-|-3/5---5-5----|-5---5-5---5-|
E|-3---3-3---|-3---3-3----|-------------5|---------5---|

G|-----------|------------|------------|------------|
D|-----------|------------|------------|------------|
A|-6---6-6---|-6---6-6----|------------|------------|
E|-----------|-----------0|-1---1-1---1|--1--1--1--1|

G|-----------|---------------|-----------|------------|
D|-----------|---------------|-----------|------------|
A|-1---1-1---|-1---1-1------1|-0---0-0---|-0---0-0----|
E|-----------|----------(1)--|-----------|-----------1|

G|-----------|-----------|------------|-------------|
D|-----------|-----------|------------|-------------|
A|-----------|-----------|-5---5-5----|-5---5-5----5|
E|-3---3-3---|-3---3-3---|-----------5|----------5--|

G|-----------|-------------|-----------|-------------|
D|-----------|----------2-3|-----------|-------------|
A|-6---6-6---|-6---6-6-----|-----------|-------------|
E|-----------|-------------|-1---1-1---|-1---3-1-3--1|

G|-----------|---------------|-----------|-------------|
D|-----------|---------------|-----------|-------------|
A|-1---1-1---|-1---1-1------1|-0---0-0---|-0---0-0-----|
E|-----------|----------(1)--|-----------|----------1h2|

G|-----------|-----------|-----------|--------------|
D|-----------|-----------|-----------|--------------|
A|-----------|-----------|-5---5-5---|-5---5-5---3-5|
E|-3---3-3---|-3---3-3---|-----------|---------5----|

G|-----------|------------|-----------|---------------|
D|-----------|------------|-----------|---------------|
A|-6---6-6---|-6---6-6---\|-----------|---------------|
E|-----------|------------|-1---1-1---|-1-1--3-x-1-1-3|

G|------------|---------------|-----------|-------------|
D|------------|---------------|-----------|-------------|
A|-1---1-1----|-1---1-1------1|-0---0-0---|-0---0-0-----|
E|-----------1|----------(1)--|-----------|----------1h2|
                                                        (fade out)
G|-----------|------------|------------|--------------|-----------|
D|-----------|------------|------------|--------------|-----------|
A|-----------|------------|-5---5-5----|-5---5-5---3-5|-6---6-6---|
E|-3---3-3---|-3---3-3--6-|-----------5|---------5----|-----------|



************************************

| / Slide up
| \ Slide down
| h Hammer-on
| (n) Ghost note
| x Dead note

************************************ 

            
            
Suggest correction
Creating personal tab
Creating personal tab
You can edit any tab online and save it as your Personal.

You can edit, replace or remove any tab part or add personal notes – all changes will be seen only by you.

Personal tabs can be accessed anytime from any device, even offline.
Learn more »
Give kudos to tab author, rate the tab!
1 2 3 4 5
comments
print report bad tab
guest
You may want to rate the tab now too:
select rating
Wanna post a correction for this tab? Suggest correction