Oops, an error
Loading. Please wait.

Madman Across The Water bass

28 views 6 this week
no commentswrite comment
1 2 3 4 5
2 more votes to show rating
add to favorites
×
Save as Personal and add changes to this tab that will be seen only by you. Learn more ›
×
You can save this tab as Personal to edit and correct it or add notes. All changes will be seen only by you. Learn more »
launch autoscroll
font size
0
reset
guitar tuner
backing track
0:00
0:00
edit
Autoscroll
slow
fast
+/-
esc
set tempo
stop
4/4
[Verse]                                                                   
G|--------------------------------|2-------------------------------|
D|--------------------------------|--------------------------0-----|
A|--------------------------------|--------------------------------|
E|--------------------------------|------------------------------3-|
 
                                                                    
G|--------------------------------|--------------------9-----------|
D|------0---2---------------------|7-----------------------7-------|
A|--0-----------------------------|----------------------------7---|
E|--------------0-----------------|--------------------------------|
 
                                                                    
G|------------------7-------------|--------------------------------|
D|5---------------------5---------|3-------------------------------|
A|--------------------------5-----|--------------------------------|
E|--------------------------------|--------------------------------|
 
                                                                    
G|--------------------------------|------------------0-------------|
D|------3-------------------------|------------------------------0-|
A|--3-----------------0---1-------|3-----------------------3-------|
E|--------------------------------|--------------------------------|
 
                                                                    
G|--------------------------------|--------------------------------|
D|--------------------------------|0-------0-----------------------|
A|----------------------------0---|--------------------------------|
E|--------------------------------|--------------------------------|
 
                                                                    
G|--------------0---------------2-|--------------------------------|
D|3-------------------------------|----------------------------0---|
A|--------------------------------|--------------------------------|
E|--------------------------------|------------------------------3-|
 
                                                                    
G|--------------------------------|2---------------2---------------|
D|------0---2-------2-------------|--------------------------0-----|
A|--0-----------------------------|--------------------------------|
E|------------------------0-------|------------------------------3-|
 
                                                                    
G|--------------------------------|------------------9-------------|
D|------0---2---------------------|7---------------------7---------|
A|--0-----------------------------|----------------------------7---|
E|--------------0-----------------|--------------------------------|
 
                                                                    
G|0-----------------2---0---------|--------------------------------|
D|--------------------------0---3-|--------------3-----------------|
A|--------------------------------|------------------------3-------|
E|--------------------------------|--------------------------------|
 
                                                                    
G|--------------------------------|--------------------------------|
D|----3---------------------------|------------------5-------------|
A|------------3-------0-----2---3-|----------------------3---4---5-|
E|--------------------------------|--------------------------------|
 
                                                                    
G|--------------------------------|--------------2-----------------|
D|--------------0---------------4-|--------4-----------------------|
A|--------------------------------|--------------------------------|
E|--------------------------------|--------------------------------|
 
                                                                    
G|--------------0---------------2-|--------------------------------|
D|3-------------------------------|--------------------------0---2-|
A|--------------------------------|--------------------------------|
E|--------------------------------|--------------------------------|
 
                                                                    
G|--0---2-------0-----------------|----------------0-------------2-|
D|------------------2---0---------|3-------------------------------|
A|--------------------------------|--------------------------------|
E|--------------------------------|--------------------------------|
 
                                                                    
G|--------------------------------|--0-----2-----0-----------------|
D|--------------------------2-----|------------------2---0---------|
A|--------------------------------|------------------------------3-|
E|--------------------------------|--------------------------------|
 
[Chorus]                                                                    
G|----------------------0-------0-|--------------------------------|
D|--------------------------------|----------------------0---1---2-|
A|--------------------------------|------------------3-------------|
E|--------------------------------|--------------------------------|
 
                                                                    
G|--------------------------------|--------------------------------|
D|--------2-----------------0---2-|------2-------2---0-------------|
A|--------------------------------|----------------------3---2---0-|
E|--------------0-------0---------|--------------------------------|
 
                                                                    
G|--------------------------------|------------------0-----------2-|
D|------------------------------0-|--------------2-----------------|
A|--------------3-----------------|--------------------------------|
E|--------------------------------|--------------------------------|
 
                                                                    
G|--------------2-----------------|--0---2-------2---0-------------|
D|----------------------------0-2-|----------------------2---0-----|
A|--------------------------------|------------------------------3-|
E|--------------------------------|--------------------------------|
 
                                                                    
G|--------------------------------|--------------0-----------------|
D|--------------0---------------3-|------------------0-------------|
A|--------------------------------|--------------------------------|
E|--------------------------------|--------------------------------|
 
                                                                    
G|--------------------------------|--5---2-------2-----------------|
D|--------------------------------|----------5---------2-----------|
A|0-------------0-----------------|----------------------5---------|
E|--------------------------------|--------------------------5-----|
 
                                                                    
G|--------------------------------|--------------0-----------------|
D|----------------0-------------3-|--------------------0-----------|
A|3-------------------------------|--------------------------------|
E|--------------------------------|--------------------------------|
 
                                                                    
G|2-----------2---2---------------|--2-------------2---------------|
D|----------------------------2---|------2-----------------------3-|
A|--------------------------------|--------------------------------|
E|--------------------------------|--------------------------------|
 
                                                                    
G|--------------------------------|--------------------------------|
D|----------3-----3-----------3---|----------------------0-------2-|
A|--------------------------------|--------------------------------|
E|------------------------------1-|----1-----1---1-----------------|
 
                                                                    
G|--------------------------------|--------------------------------|
D|------------------------2-------|2-------------2-----------------|
A|--------------------------------|------------------------------0-|
E|--------------------------------|--------------------------------|
 
                                                                    
G|--------------------------------|------------------------------0-|
D|--------------------------------|----------------0---3---------0-|
A|--------------------------------|3-------------------------------|
E|--------------------------------|--------------------------------|
 
                  [Verse]                                  
G|----------------|2---------------2---------------|
D|----------------|--------------------------2-----|
A|----------------|--------------------------------|
E|----------------|------------------------------3-|
 
                                                                    
G|--------------------------------|2---------------2---------------|
D|------0---2---------------2-----|--------------------------0-----|
A|--0-----------------------------|0---------------0---------------|
E|--------------------------------|------------------------------3-|
 
                                                                    
G|------------------------------2-|----------2-----2---------------|
D|------0---2---------------------|--------------------------0-----|
A|----0---------------------------|--------------------------------|
E|--------------------------------|------------------------------3-|
 
                                                                    
G|--------------------------------|2-------2---2---2---------------|
D|------0---2---------------------|----------------------0-----0---|
A|--0-----------------------------|--------------------------------|
E|--------------------0-----3-----|--------------------------------|
 
                                                                    
G|------------------------------2-|------2---2---2-----------------|
D|------0---2---------------2-----|----------------------------0---|
A|----0---------------------------|--------------------------------|
E|3-------------------------------|--------------------------------|
 
                                                                    
G|--------------------------------|2---2---2---2---2---------------|
D|----------0---------------------|----------------------------0---|
A|--0---3-----------0-------------|--------------------------------|
E|3-----------------------0-------|------------------------------3-|
 
                                                                    
G|------------------------------2-|------2---2---2-----------------|
D|------0---2-------0---2---------|--------------------------0-----|
A|----0---------------------------|--------------------------------|
E|--------------------------------|------------------------------3-|
 
                                                                    
G|--------------------------------|2-----2-----5---2---------------|
D|------0---2-------0---2---------|--------------------------------|
A|--0-----------------------------|----------------------------5---|
E|--------------------------------|------------------------------3-|
 
                                                                    
G|--------------------------------|2---2-2---5---2-----------------|
D|--------0---2-----------2---2---|--------------------------------|
A|----0---------------------------|--------------------------5-----|
E|--------------------------------|------------------------------3-|
 
                                                                    
G|--------------------0-----0---2-|--------2-2-----2---------------|
D|------0---2---------------------|--------------------------0-----|
A|--0-----------------------------|--------------------------------|
E|--------------------------------|------------------------------3-|
 
                                                                    
G|------------------------------2-|----------2-----2---------------|
D|------0-----2-------2-----2-----|--------------------------0-----|
A|--0-----------------------------|--------------------------------|
E|--------------------------------|------------------------------3-|
 
                                                                    
G|--------------------------------|2-------2-2-----2---------------|
D|--------0-2-------2---2---2-----|--------------------------0-----|
A|--0-----------------------------|--------------------------------|
E|--------------------------------|--------------------------------|
 
                                                                    
G|--------------------------0---2-|--------2-----2-----------------|
D|--------0---2-------2-----------|--------------------------0-----|
A|----0---------------------------|--------------------------------|
E|3-------------------------------|--------------------------------|
 
                                                                    
G|------------------0---------1-2-|----------2-----2---------------|
D|--------0-2---------------------|----------------------------0---|
A|----0---------------------------|--------------------------------|
E|3-------------------------------|--------------------------------|
 
                                                                    
G|------------------------------2-|------2---2-----2---------------|
D|--------0---2-------2-----2-----|----------------------------0---|
A|----0---------------------------|--------------------------------|
E|3-------------------------------|------------------------------3-|
 
                                                                    
G|------------0-----------2-----2-|----------------2---------------|
D|--------0-----------------------|--------------------------0-----|
A|----0---------------------------|--------------------------------|
E|--------------------------------|------------------------------3-|
 
                                                                    
G|------------------------------2-|----------2-----2---------------|
D|------0---2-------2-------2-----|--------------------------0-----|
A|--0-----------------------------|--------------------------------|
E|--------------------------------|------------------------------3-|
 
                                                                    
G|------------------------------0-|--2-----------2-----------------|
D|------------0-2---0---2---0-----|----------2-------2-------------|
A|--------------------------------|--------------------------------|
E|--3---3-------------------------|--------------------------3-----|
 
                                                                    
G|------------------------------2-|--0-------------2---------------|
D|--------------------0-----2-----|------2-------------2-----0-----|
A|--0---------3-------------------|----------0---------------------|
E|--------------------------------|--------------------------------|
 
                                                                    
G|------------------0-------------|--------------------------------|
D|--0---------2-------------------|------------0-------------0-----|
A|--------------------------0-----|--3---------------0---0---------|
E|--------------------------------|--------------------------------|
 
                                                                    
G|--------------------------------|----------------------------0---|
D|----1-------2-------------------|--------------------2-----------|
A|------------------0---0---------|--3---------0-------------------|
E|--------------------------------|--------------------------------|
[Chorus]                                                                    
G|--2---2-------------------------|2---------------2---------------|
D|----------0-----0---1---1-2-----|--------------------------------|
A|--------------------------------|--------------------------------|
E|--------------------------------|------------------------------3-|
 
                                                                    
G|--------------------------0-----|2---------------2---------------|
D|----------0---2---2---2---------|--------------------------------|
A|--0---3-------------------------|--------------------------------|
E|--------------------------------|------------------------------3-|
 
                                                                    
G|--------------------------0-----|2-----------2---2---------------|
D|----------0-----2---2-2---------|--------------------------------|
A|--0---3-------------------------|--------------------------------|
E|--------------------------------|------------------------------3-|
 
                                                                    
G|--------------------------0---2-|--2---2-------------------------|
D|--------0---------------2-------|----------2---------------------|
A|--0-----------------------------|--------------0-----------------|
E|------------0-------------------|------------------------------3-|
 
                                                                    
G|--------------------------------|2-2---2---5---2-----------------|
D|--------0-----------------------|--------------------------------|
A|--0-----------------------------|----------------------------5---|
E|----------0---------------------|------------------------------3-|
 
                                                                    
G|------------------------------2-|--2---2---2---2-----------------|
D|------0---2---------------------|--------------------------------|
A|----0---------------------------|--------------------------------|
E|--------------0-----------------|------------------------------3-|
 
                                                                    
G|------------------------0-------|2-------2-------2---------------|
D|------0-------------------------|--------------------------------|
A|--0-----------------------------|--------------------------------|
E|----------0---------0-----------|------------------------------3-|
 
                                                                    
G|----------------------0---------|2---------------2---------------|
D|------0-----------2-------------|--------------------------------|
A|--0-----------------------------|--------------------------------|
E|------------0-------------------|------------------------------3-|
 
                                                                    
G|--------------------0-----------|2-----------2---2---------------|
D|------0---2---------------------|--------------------------------|
A|--0-----------------------------|--------------------------------|
E|--------------------------------|------------------------------3-|
 
                                                                    
G|----------------------0---------|2---------------2---------------|
D|--------0-2---------------------|--------------------------------|
A|--0-----------------------------|--------------------------------|
E|--------------------------------|------------------------------3-|
 
                                                                    
G|--------------------------------|2-------------2-----------------|
D|------0---2---------------------|--------------------------------|
A|--0-----------------------------|--------------------------------|
E|--------------------0-----------|------------------------------3-|
 
                                                                    
G|------------------------------2-|--------------------------------|
D|------0---2---------------------|--------------------------------|
A|--0-----------------------------|--------------------------------|
E|--------------------------------|--------------------------------|
 
                                                                    
G|--------------------------------|2-------------------------------|
D|--------0---2-------------------|--------------------------------|
A|--0-----------------------------|--------------------------------|
E|3-------------------------------|--------------------------------|
 
[Outro]                                                                    
G|------------------------------2-|--------------------------------|
D|--------------------------------|--------------------------------|
A|--------------------------------|--------------------------------|
E|--------------------------------|--------------------------------|
 
                                                                    
G|------------------------------2-|--------------------------------|
D|--------------------------------|--------------------------------|
A|--------------------------------|--------------------------------|
E|--------------------------------|--------------------------------|
 
                                                                    
G|------------------------2-------|2-------------------------------|
D|--------------------------------|--------------------------------|
A|--------------------------------|--------------------------------|
E|--------------------------------|--------------------------------|
 
                                                                    
G|--------------------------------|--------------------------------|
D|--------------------------------|--------------------------------|
A|--------------------------------|--------------------------------|
E|--------------------------------|--------------------------------|
 
                                                                    
G|--------------------------------|--------------------------------|
D|--------------------------------|--------------------------------|
A|--------------------------------|--------------------------------|
E|--------------------------------|--------------------------------|
 
                                                                    
G|------------------------------2-|----------------2-------------0-|
D|--------------------------------|--------------------------------|
A|--------------------------------|--------------------------------|
E|--------------------------------|--------------------------------|
 
                                                                    
G|--------------0-----------------|--------------------------------|
D|------------------------------3-|--------------------------------|
A|--------------------------------|--------------------------------|
E|--------------------------------|--------------------------------|
 
                                                                    
G|--------------------------------|--------------------------------|
D|------3-------2---------0-------|------------------5-------------|
A|------------------------------3-|------------------------3---4---|
E|--------------------------------|--------------------------------|
 
                                                                    
G|--------------------------------|--------------2-----------------|
D|0-------------------------------|4-----------------------------3-|
A|--------------------------------|----------------------0---------|
E|--------------------------------|--------------------------------|
 
                                                    
G|--------0-------|2-------------------------------|
D|----------------|--------------------------0-----|
A|----------------|--------------------------------|
E|----------------|------------------------------3-|
 
                                                                    
G|------------------------------2-|----2---2-------2---------------|
D|--------0-2---------------------|--------------------------0-----|
A|--0-----------------------------|--------------------------------|
E|--------------------------------|------------------------------3-|
 
                                                                    
G|--------------------------------|------------------9-------------|
D|--------0-----------------------|7---------------------7---------|
A|--0-----------------------------|--------------------------7---10|
E|------------0-------------------|--------------------------------|
 
                                                                    
G|------------------7-------------|--------------------------------|
D|----5-----5---------------5-----|--------------------------------|
A|------------------------------8-|------------3-------------------|
E|--------------------------------|------------------------1-------|
 
                                                                    
G|--------------------------------|--------------------0-----------|
D|--------------------3-----------|----------------2-------------0-|
A|----0-------3-----------3-0-----|3-------------------------3-----|
E|--------------------------------|--------------------------------|
 
                                                                    
G|------------------------------2-|--------------7-----------------|
D|--------------4-----------------|--------------------------------|
A|--------------------------------|------------------------------8-|
E|--------------------------------|--------------------------------|
 
                                                                    
G|--------------0---------------2-|----------------2---------------|
D|--------------------------------|--------------------------0---2-|
A|--------------------------------|--------------------------------|
E|--------------------------------|--------------------------------|
 
                                                                    
G|------2---5---2-----------------|----------------0---------------|
D|--5---------------5---2---------|3-------------------------------|
A|--------------------------3-----|--------------------------------|
E|--------------------------------|--------------------------------|
 
                                                                    
G|2-------------2-----------------|------2---5---2-----------------|
D|----------------------------0-2-|--5---------------5---2---------|
A|--------------------------------|--------------------------------|
E|--------------------------------|--------------------------5-----|
 
                                                                    
G|--------------------------------|--------0-----------------------|
D|--------------------------------|--------------------------------|
A|3-------------------------------|--------------------------------|
E|--------------0-----------1-----|3-----------------3-------3-----|
 
                                                                    
G|------------------------7---9---|9-7-----------------------------|
D|--------------------------------|------9-------------------------|
A|--------------------------------|----------------7---7-----------|
E|0-0-----------------------------|----------------------10--9-----|
 
                                                                    
G|--------------------------------|------------------0-----------2-|
D|--------------------------------|0-------------2-----------------|
A|3-------------------------------|--------------------------------|
E|--------------------------------|--------------------------------|
 
                                                                    
G|----------------2-----------0---|------0---2---2---0-------------|
D|--------------------------------|--2-------------------2---0-----|
A|--------------------------------|--------------------------------|
E|--------------------------------|--------------------------------|
 
                                                                    
G|--------------------------------|------------------2-----------2-|
D|--------------0---------------3-|--------------3---------0-------|
A|3-------------------------------|--------------------------------|
E|--------------------------------|--------------------------------|
 
                                                                    
G|--------------------------------|------2---5---2-----------------|
D|----------------------------0---|2---5-------------5---2---------|
A|--------------------------------|--------------------------5-----|
E|--------------------------------|--------------------------------|
 
                                                                    
G|--------------------------------|--------------0---------------2-|
D|--------------0---------------3-|------------------0-------------|
A|3-------------------------------|--------------------------------|
E|--------------------------------|--------------------------------|
 
                                                                    
G|------2---2-----2---------------|--2---0-------------------------|
D|--------------------------------|----------2---0---2---0---------|
A|--------------------------------|--------------------------3-----|
E|--------------------------------|------------------------------1-|
 
                                                                    
G|--------------------------------|--------------------------------|
D|------------------------3---3---|--------------------------------|
A|--------------------------------|----------------------2---3-----|
E|------------1---1---------------|1---1-------1-1-----------------|
 
                                                                    
G|--------------------------------|--------------------------------|
D|0-------0-----0-------2---------|3---------------2-------2-------|
A|--------------------------------|------------------------------0-|
E|--------------------------------|--------------------------------|
 
                                                                    
G|--------------------------------|--------------------------------|
D|--------------------------------|----------------0---3-----------|
A|--------------------------------|3-------------------------------|
E|--------------------------------|--------------------------------|
 
                                                    
G|0---------------|2---------------2---------------|
D|----------------|--------------------------0-----|
A|----------------|--------------------------------|
E|----------------|--------------------------------|
 
                                                                    
G|--------------------------0-----|2-----------2---2---------------|
D|------0-----2-------------------|--------------------------0-----|
A|--0-----------------------------|--------------------------------|
E|3-----------------0-------------|------------------------------3-|
 
                                                                    
G|--------------------------------|2-----------2---2---------------|
D|------0---2-----------2---2-----|----------------------------0---|
A|--0-----------------------------|--------------------------------|
E|--------------0-----------------|------------------------------3-|
 
                                                                    
G|------------------------------2-|----------2-----2---------------|
D|------0---2---------------------|--------------------------0-----|
A|--0-----------------------------|--------------------------------|
E|--------------------0---0-------|--------------------------------|
 
                                                                    
G|--------------------------------|--------------------------------|
D|------0-----2-------------------|--------------------------------|
A|--0-----------------------------|0-------------------------------|
E|3-------------------0---0---0---|--------------------------------|

            
            
Suggest correction
Creating personal tab
Creating personal tab
You can edit any tab online and save it as your Personal.

You can edit, replace or remove any tab part or add personal notes – all changes will be seen only by you.

Personal tabs can be accessed anytime from any device, even offline.
Learn more »
Give kudos to tab author, rate the tab!
1 2 3 4 5
comments
print report bad tab
guest
You may want to rate the tab now too:
select rating
Wanna post a correction for this tab? Suggest correction