Oops, an error
Loading. Please wait.

Madman Across The Water Tab

9,693 views 1 this week
1 commentread comment
1 2 3 4 5
worth learning
x 6
add to favorites
launch autoscroll
font size
0
reset
how to read this tab
guitar tuner
Tab Pro tools
  • play this tab
  • loop segment
  • change instrument
  • show fretboard
  • metronome
×
Best way to learn
"Madman Across The Water"
Autoscroll
slow
fast
+/-
esc
set tempo
stop
Contributor
Tabbers playing skills
intermediate ++
-------------------------------------------------------------------------------
                            Madman Across The Water: Elton John
-------------------------------------------------------------------------------
Tabbed by: Les Gibson

Tuning: Standard

Intro (acoustic):  +12 = natural harmonic at 12th fret

    Am           G                    Am          G 
e|-----0---------------------------------0----------------------------|
B|-----1-----------------+12-----+7------1---------------+12------+7--|
G|-----2-----0-------0---+12-----+7------2-----0------0--+12------+7--|
D|-----2---0---------0---------0---------2---0--------0--------0------|
A|--0--------------2------------------0-------------2-----------------|
E|---------------3--------------------------------3-------------------|

This riff plays often throughout the song; there is already a v.good page 
with the chords, so there's no point me writing them out again. Enjoy!

===============================================================================
comments
print report bad tab
1 comment total.
0 reply
AllisonsGuitar wrote on March 25 2010, 05:36 pm

Almost - if you were to remove the open D & G notes between the Am & G chords, and remove the open D & A notes before and after the 7th fret harmonic, then it'd be correct.
There's also a section in the solo area that's similar to this, but instead of the harmonics it plays what ianvomsaal's version calls a "G-LICK".
G-LICK
e|---------------|
B|---------------|
G|---------------|
D|------0-2~~0---|
A|----2----------|
E|--3------------|

I want to post or [tab]
guest
You may want to rate the tab now too:
select rating
Please do not post tabs as comments. Select "correction" instead!