Oops, an error
Loading. Please wait.

Pinball Wizard Bass Tab

7 views 7 this week
no commentswrite comment
1 2 3 4 5
3 more votes to show rating
add to favorites
launch autoscroll
font size
0
reset
guitar tuner
Autoscroll
slow
fast
+/-
esc
set tempo
stop
Help us to improve Ultimate-Guitar.com Take our survey!
×
Author
Difficulty
novice
About this tab version
This is the only cover of a Who song to reach the top 10 on Billboard. Was this info helpful? Yes No
  [Intro]
G|----------------|----------------|----------------|----------------|
D|----------------|----------------|----------------|----------------|
A|3---------------|1---------------|----------------|----------------|
E|----------------|----------------|3---------------|3---------------|

G|----------------|----------------|----------------|----------------|
D|----------------|----------------|----------------|----------------|
A|1---------------|----------------|3---------------|----------------|
E|----------------|4---------------|----------------|3---------------|

G|----------------|----------------|
D|----------------|----------------|
A|3---------------|----------------|
E|----------------|3---------------|

G|----------------|----------------|----------------|----------------|
D|3-----------3---|----------------|3-----------3---|----------------|
A|----------------|3-----------3---|----------------|3-----------3---|
E|----------------|----------------|----------------|----------------|

G|----------------|----------------|----------------|----------------|
D|----------------|----------------|----------------|----------------|
A|3---------------|----------------|3---------------|----------------|
E|----------------|----------------|----------------|----------------|

  [Verse]
G|----------------|----------------|----------------|----------------|
D|----------------|----------------|----------------|----------------|
A|3-----3-3-----3-|3-----3-3-----3-|1-----1-1-----1-|1-----1-1-----1-|
E|----------------|----------------|----------------|----------------|

G|----------------|----------------|----------------|----------------|
D|----------------|----------------|----------------|----------------|
A|----------------|----------------|----------------|----------------|
E|4-----4-4-----4-|4-----4-4-----4-|3---3---3---3---|3---------------|

G|----------------|----------------|----------------|----------------|
D|----------1---3-|3---------------|----------1---3-|3---------------|
A|3-3---1---------|----------------|3-3---1---------|----------------|
E|----------------|----------------|----------------|----------------|

  [Verse]
G|----------------|----------------|----------------|----------------|
D|----------------|----------------|----------------|----------------|
A|3-----3-3-----3-|3-----3-3-----3-|1-----1-1-----1-|1-----1-1-----1-|
E|----------------|----------------|----------------|----------------|

G|----------------|----------------|----------------|----------------|
D|----------------|----------------|----------------|----------------|
A|----------------|----------------|----------------|----------------|
E|4-----4-4-----4-|4-----4-4-----4-|3---3---3---3---|3---------------|

G|----------------|----------------|----------------|----------------|
D|----------1---3-|3---------------|----------1---3-|3---------------|
A|3-3---1---------|----------------|3-3---1---------|----------------|
E|----------------|----------------|----------------|----------------|

  [Chorus]
G|----------------|----------------|----------------|----------------|
D|3-----3-3---3---|----------------|----------------|1-----1-1---1---|
A|----------------|3-----3-3---3---|3-----3-3---3---|----------------|
E|----------------|----------------|----------------|----------------|

G|----------------|----------------|----------------|----------------|
D|----------------|----------------|1-----1-1---1---|----------------|
A|1-----1-1---1---|1-----1-1---1---|----------------|1-----1-1---1---|
E|----------------|----------------|----------------|----------------|

G|----------------|----------------|
D|----------------|----------------|
A|1-----1-1---1---|1-----1-1---1---|
E|----------------|----------------|

  [Verse]
G|----------------|----------------|----------------|----------------|
D|----------------|----------------|----------------|----------------|
A|3-----3-3-----3-|3-----3-3-----3-|1-----1-1-----1-|1-----1-1-----1-|
E|----------------|----------------|----------------|----------------|

G|----------------|----------------|----------------|----------------|
D|----------------|----------------|----------------|----------------|
A|----------------|----------------|----------------|----------------|
E|4-----4-4-----4-|4-----4-4-----4-|3---3---3---3---|3---------------|

G|----------------|----------------|----------------|----------------|
D|----------1---3-|3---------------|----------1---3-|3---------------|
A|3-3---1---------|----------------|3-3---1---------|----------------|
E|----------------|----------------|----------------|----------------|

  [Chorus]
G|----------------|----------------|----------------|----------------|
D|3-----3-3---3---|----------------|----------------|1-----1-1---1---|
A|----------------|3-----3-3---3---|3-----3-3---3---|----------------|
E|----------------|----------------|----------------|----------------|

G|----------------|----------------|--------1-----1-|----------------|
D|----------------|----------------|1-----1---------|1-----1---------|
A|1-----1-1---1---|1-----1-1---1---|----------------|--------1-----1-|
E|----------------|----------------|----------------|----------------|

G|--------1-----1-|----------------|----------------|----------------|
D|----------------|1-----1---------|--------1-----1-|1-----1-1-----1-|
A|1-----1---------|--------1------1|1-----1---------|----------------|
E|----------------|----------------|----------------|----------------|

G|----------------|----------------|
D|1-----1-1-----1-|1-----1---------|
A|----------------|--------1---1---|
E|----------------|----------------|

G|----------------|----------------|----------------|----------------|
D|----------------|----------------|----------------|----------------|
A|3---------------|----------------|3---------------|----------------|
E|----------------|----------------|----------------|----------------|

  [Verse]
G|----------------|----------------|----------------|----------------|
D|----------------|----------------|----------------|----------------|
A|3-----3-3-----3-|3-----3-3-----3-|1-----1-1-----1-|1-----1-1-----1-|
E|----------------|----------------|----------------|----------------|

G|----------------|----------------|----------------|----------------|
D|----------------|----------------|----------------|----------------|
A|----------------|----------------|----------------|----------------|
E|4-----4-4-----4-|4-----4-4-----4-|3---3---3---3---|3---------------|

G|----------------|----------------|----------------|----------------|
D|----------1---3-|3---------------|----------1---3-|3---------------|
A|3-3---1---------|----------------|3-3---1---------|----------------|
E|----------------|----------------|----------------|----------------|

G|----------------|----------------|0-------------0-|0-------------0-|
D|3-------------3-|3-------------3-|----------------|----------------|
A|----------------|----------------|----------------|----------------|
E|----------------|----------------|----------------|----------------|

  [Chorus]
G|0---------------|0---------------|0---------------|----------------|
D|----3---0-------|----3---0-------|----3---0---3---|3-----------3---|
A|----------------|----------------|----------------|----------------|
E|----------------|----------------|----------------|----------------|

G|----------------|----------------|----------------|----------------|
D|------------3---|------------3---|------------3---|----------------|
A|3---------------|3---------------|3---------------|3-----------3---|
E|----------------|----------------|----------------|----------------|

G|0---------------|0---------------|0---------------|----------------|
D|----3---0-------|----3---0-------|----3---0---3---|3-----------3---|
A|----------------|----------------|----------------|----------------|
E|----------------|----------------|----------------|----------------|

G|----------------|----------------|----------------|----------------|
D|------------3---|------------3---|0-----------0---|0-----------0---|
A|3---------------|3---------------|----------------|----------------|
E|----------------|----------------|----------------|----------------|

G|----------------|----------------|
D|2---------------|----------------|
A|----------------|----------------|
E|----------------|----------------|

  [Break]
G|--------0-------|--------0-------|--------0-------|--------0-------|
D|0-----3-------3-|0-----3-------3-|0-----3-------3-|0-----3-------3-|
A|----------------|----------------|----------------|----------------|
E|----------------|----------------|----------------|----------------|

G|--------0-------|--------0-------|--------0-------|--------0-------|
D|0-----3-------3-|0-----3-------3-|0-----3-------3-|0-----3-------3-|
A|----------------|----------------|----------------|----------------|
E|----------------|----------------|----------------|----------------|

G|--------0-------|--------0-------|--------0-------|--------0-------|
D|0-----3-------3-|0-----3-------3-|0-----3-------3-|0-----3-------3-|
A|----------------|----------------|----------------|----------------|
E|----------------|----------------|----------------|----------------|

G|--------0-------|--------0-------|--------0-------|----------------|
D|0-----3-------3-|0-----3-------3-|0-----3-------3-|0-----0---------|
A|----------------|----------------|----------------|-------3------3-|
E|----------------|----------------|----------------|----------------|

  [Chorus]
G|0---------------|0---------------|0---------------|----------------|
D|----3---0-------|----3---0-------|----3---0---3---|3-----------3---|
A|----------------|----------------|----------------|----------------|
E|----------------|----------------|----------------|----------------|

G|----------------|----------------|----------------|----------------|
D|------------3---|------------3---|0-----------0---|0-----------0---|
A|3---------------|3---------------|----------------|----------------|
E|----------------|----------------|----------------|----------------|

G|----------------|----------------|
D|2---------------|----------------|
A|----------------|----------------|
E|----------------|----------------|

  [Outro]
G|----------------|----------------|----------------|----------------|
D|----------------|3-3-------------|----------------|3-3-------------|
A|3-----1-1-------|--------3-3-----|3-----1-1-------|--------3-3-----|
E|----------------|----------------|----------------|----------------|

  Keep repeating the above 4 bars
Suggest correction
Give kudos to tab author, rate the tab!
1 2 3 4 5
comments
print report bad tab
guest
You may want to rate the tab now too:
select rating
Wanna post a correction for this tab? Suggest correction