Oops, an error
Loading. Please wait.

Please bass

46 views 1 this week
no commentswrite comment
1 2 3 4 5
2 more votes to show rating
add to favorites
×
Save as Personal and add changes to this tab that will be seen only by you. Learn more ›
×
You can save this tab as Personal to edit and correct it or add notes. All changes will be seen only by you. Learn more »
launch autoscroll
font size
0
reset
guitar tuner
edit
Autoscroll
slow
fast
+/-
esc
set tempo
stop
Author
Difficulty
Intro :
G|---------------------------------|---------------------------------|
D|---------------------------------|---------------------------------|
A|---------------------------------|---------------------------------|
E|---------------------------------|---------------------------------|

G|---------------------------------|---------------------------------|
D|---------------------------------|---------------------------------|
A|---------------------------------|---------------------------------|
E|---------------------------------|---------------------------------|

G|---------------------------------|---------------------------------|
D|---------------------------------|---------------------------------|
A|---------------------------------|---------------------------------|
E|---------------------------------|---------------------------------|

G|---------------------------------|---------------------------------|
D|---------------------------------|---------------------------------|
A|---------------------------------|---------------------------------|
E|---------------------------------|------------------------4---\----|

Verse 1 :
G|---------------------------------|---------------------------------|
D|---------------------------------|---------------------------------|
A|----------------2----------------|---------------------------------|
E|0-----------0-----------0--------|5-----------0---0----------------|

G|---------------------------------|---------------------------------|
D|---------------------------------|---------------------------------|
A|----------------2----------------|2--------------------------------|
E|0-----------0-----------0--------|------------0---0----------------|

G|---------------------------------|---------------------------------|
D|---------------------------------|---------------------------------|
A|----------------2----------------|---------------------------------|
E|0-----------0-----------0--------|5-----------0---0----------------|

G|---------------------------------|---------------------------------|
D|---------------------------------|------------4--------------------|
A|----------------2----------------|2-------------------7---6--------|
E|0-----------0-----------0--------|----------------------------7----|

G|---------------------------------|---------------------------------|
D|---------------------------------|---------------------------------|
A|--------------6h7----------------|--------------6h7----------------|
E|5-----------------------5--------|5-----------------------5--------|

G|---------------------------------|---------------------------------|
D|---------------------------------|---------------------------------|
A|----------------2-------0--------|----------------2----------------|
E|0-----------0--------------------|0-----------0-----------0--------|

G|---------------------------------|---------------------------------|
D|---------------------------------|------------------------6-\-4----|
A|----------------7-----------0-/--|4---------------7----------------|
E|5-----------5--------------------|---------------------------------|

G|---------------------------------|---------------------------------|
D|----------------4----------------|---------------------------------|
A|2-----------------------7---6----|---------------------------------|
E|---------------------------------|7---------------7----------------|

Chorus : 
G|---------------------------------|---------------------------------|
D|---------------------------------|---------------------------------|
A|---------------------------------|------------------------6--------|
E|0-----------0---7-------0--------|4-----------4---7----------------|

G|---------------------------------|---------------------------------|
D|7-----------7--------------------|---------------------------------|
A|----------------7-------4-\-2----|---------------------------------|
E|---------------------------------|0-----------0---7-------0--------|

G|---------------------------------|---------------------------------|
D|---------------------------------|---------------------------------|
A|---------------------------------|4-----------4---4-------4--------|
E|4-----------4---4-------4--------|---------------------------------|

G|---------------------------------|---------------------------------|
D|---------------------------------|---------------------------------|
A|2-----------2--------------------|2-----------2---2-------2--------|
E|----------------2-------4--------|---------------------------------|

G|---------------------------------|---------------------------------|
D|---------------------------------|----------------5----------------|
A|----------------7----------------|3-----------3-----------3--------|
E|5-----------5-----------5--------|---------------------------------|

G|---------------------------------|---------------------------------|
D|---------------------------------|---------------------------------|
A|---------------------------------|----------------7----------------|
E|0-----------0---7-------0--------|5-----------5-----------5--------|

G|---------------------------------|---------------------------------|
D|---------------------------------|---------------------------------|
A|---------------------------------|---------------------------------|
E|0-----------0---4-------5--------|7--------------------------------|

Interlude :
G|---------------------------------|---------------------------------|
D|---------------------------------|---------------------------------|
A|----------------2----------------|----------------7----------------|
E|0-----------0-----------0--------|5-----------5-----------5--------|

G|---------------------------------|---------------------------------|
D|------------5--------------------|---------------------------------|
A|3-------------------7-------7----|------------5-----------------/--|
E|---------------------------------|3--------------------------------|

Verse 2 :
G|---------------------------------|---------------------------------|
D|---------------------------------|---------------------------------|
A|7--------------------------------|---------------------------------|
E|----------------7-------0---/----|5-----------0---7-------0--------|

G|---------------------------------|---------------------------------|
D|---------------------------------|---------------------------------|
A|----------------2----------------|2--------------------------------|
E|0-----------0-----------0--------|------------0---0-------0--------|

G|---------------------------------|---------------------------------|
D|---------------------------------|---------------------------------|
A|----------------2----------------|---------------------------------|
E|0-----------0-----------0--------|5-----------0---0-------0--------|

G|---------------------------------|---------------------------------|
D|---------------------------------|------------4--------------------|
A|----------------2----------------|2-------------------7---6--------|
E|0-----------0-----------0--------|----------------------------7----|

G|---------------------------------|---------------------------------|
D|---------------------------------|---------------------------------|
A|----------------7----------------|----------------7----------------|
E|5-----------5-----------5--------|5-----------5-----------5--------|

G|---------------------------------|---------------------------------|
D|---------------------------------|---------------------------------|
A|---------------------------------|---------------------------------|
E|0-----------0---7-------0--------|0-----------0---7-------0--------|

G|---------------------------------|---------------------------------|
D|---------------------------------|------------------------6-\-4----|
A|----------------7-----------2-/--|4---------------7----------------|
E|5-----------5--------------------|---------------------------------|

G|---------------------------------|---------------------------------|
D|----------------4----------------|---------------------------------|
A|2-----------------------7---6----|---------------------------------|
E|---------------------------------|7-----------7---7-------7--------|

Chorus : 
G|---------------------------------|---------------------------------|
D|---------------------------------|---------------------------------|
A|---------------------------------|------------------------6--------|
E|0-----------0---7-------0--------|4-----------4---7----------------|

G|---------------------------------|---------------------------------|
D|7-----------7--------------------|---------------------------------|
A|----------------7-------4-\-2----|---------------------------------|
E|---------------------------------|0-----------0---7-------0--------|

G|---------------------------------|---------------------------------|
D|---------------------------------|---------------------------------|
A|---------------------------------|4-----------4---4-------4--------|
E|4-----------4---4-------4--------|---------------------------------|

G|---------------------------------|---------------------------------|
D|---------------------------------|---------------------------------|
A|2-----------2--------------------|2-----------2---2-------2--------|
E|----------------2-------4--------|---------------------------------|

G|---------------------------------|---------------------------------|
D|---------------------------------|----------------5----------------|
A|----------------7----------------|3-----------3-----------3--------|
E|5-----------5-----------5--------|---------------------------------|

G|---------------------------------|---------------------------------|
D|---------------------------------|---------------------------------|
A|---------------------------------|----------------7----------------|
E|0-----------0---7-------0--------|5-----------5-----------5--------|

G|---------------------------------|---------------------------------|
D|---------------------------------|---------------------------------|
A|---------------------------------|---------------------------------|
E|0-----------0---4-------5--------|7--------------------------------|

Interlude :
G|---------------------------------|---------------------------------|
D|---------------------------------|---------------------------------|
A|---------------------------------|---------------------------------|
E|0-----------0---0----------------|0---0---0---0---0---0---0---0----|

Bridge :
G|---------------------------------|---------------------------------|
D|----------------------------2-/--|6-----------6---6----------------|
A|4-----------4---4-------4--------|------------------------6--------|
E|---------------------------------|---------------------------------|

G|---------------------------------|---------------------------------|
D|7-----------7---7----------------|---------------------------------|
A|------------------------7--------|---------------------------------|
E|---------------------------------|0-----------0---0-------0----/---|

G|---------------------------------|---------------------------------|
D|---------------------------------|---------------------------------|
A|----------------------------6----|4-----------4---4-------4--------|
E|4-----------4---4-------7--------|---------------------------------|

G|---------------------------------|---------------------------------|
D|---------------------------------|--------------------4------------|
A|5-----------5---5-------5--------|2-----------4---6----------------|
E|---------------------------------|---------------------------------|

Chorus : 
G|---------------------------------|---------------------------------|
D|---------------------------------|---------------------------------|
A|---------------------------------|------------------------6--------|
E|0-----------0---7-------0--------|4-----------4---7----------------|

G|---------------------------------|---------------------------------|
D|7-----------7--------------------|---------------------------------|
A|----------------7-------4-\-2----|---------------------------------|
E|---------------------------------|0-----------0---7-------0--------|

G|---------------------------------|---------------------------------|
D|---------------------------------|---------------------------------|
A|---------------------------------|4-----------4---4-------4--------|
E|4-----------4---4----------------|---------------------------------|

G|---------------------------------|---------------------------------|
D|---------------------------------|---------------------------------|
A|2-----------2--------------------|2-----------2---2-------2--------|
E|----------------2-------4--------|---------------------------------|

G|---------------------------------|---------------------------------|
D|---------------------------------|----------------5----------------|
A|----------------7----------------|3-----------3-----------3--------|
E|5-----------5-----------5--------|---------------------------------|

G|---------------------------------|---------------------------------|
D|---------------------------------|---------------------------------|
A|---------------------------------|----------------7----------------|
E|0-----------0---7-------0--------|5-----------5-----------5--------|

G|---------------------------------|---------------------------------|
D|---------------------------------|---------------------------------|
A|---------------------------------|---------------------------------|
E|0-----------0---4-------5--------|7--------------------------------|

G|---------------------------------|---------------------------------|
D|---------------------------------|---------------------------------|
A|---------------------------------|----------------7----------------|
E|0-----------0---7-------0--------|5-----------5-----------5--------|

G|---------------------------------|---------------------------------|
D|---------------------------------|---------------------------------|
A|---------------------------------|----------------7----------------|
E|0-----------0---7-------0--------|5-----------5-----------5--------|

G|---------------------------------|---------------------------------|
D|---------------------------------|---------------------------------|
A|---------------------------------|---------------------------------|
E|0-----------0---4-------5--------|7--------------------------------|

Outro :
G|---------------------------------|---------------------------------|
D|---------------------------------|---------------------------------|
A|---------------------------------|----------------7----------------|
E|0-----------0---7-------0--------|5-----------5-----------5--------|

G|---------------------------------|---------------------------------|
D|------------5--------------------|---------------------------------|
A|3-------------------7------------|------------5--------------------|
E|-----------------------------0---|3--------------------------------|

G|---------------------------------|---------------------------------|
D|---------------------------------|---------------------------------|
A|---------------------------------|----------------7----------------|
E|0-----------0---7-------0--------|5-----------5-----------5--------|

G|---------------------------------|---------------------------------|
D|------------5--------------------|---------------------------------|
A|3-------------------7------------|------------5--------------------|
E|-----------------------------0---|3--------------------------------|

G|---------------------------------|---------------------------------|
D|---------------------------------|---------------------------------|
A|------------7--------------------|---------------------------------|
E|5--------------------------------|---------------------------------|

            
            
Suggest correction
Creating personal tab
Creating personal tab
You can edit any tab online and save it as your Personal.

You can edit, replace or remove any tab part or add personal notes – all changes will be seen only by you.

Personal tabs can be accessed anytime from any device, even offline.
Learn more »
Give kudos to tab author, rate the tab!
1 2 3 4 5
comments
print report bad tab
guest
You may want to rate the tab now too:
select rating
Wanna post a correction for this tab? Suggest correction