Oops, an error
Loading. Please wait.

Return To Paradise Bass Tab

25 views 3 this week
no commentswrite comment
1 2 3 4 5
3 more votes to show rating
add to favorites
launch autoscroll
font size
0
reset
guitar tuner
Autoscroll
slow
fast
+/-
esc
set tempo
stop
Help us to improve Ultimate-Guitar.com Take our survey!
×
Author
Difficulty
novice
Bass Start - 00:24


[Verse 1]
G|-----------|----------------|-----------|----------------|
D|-----------|----------------|-----------|----------------|
A|3---3-5----|3---------------|3---3-5--3-|----------------|
E|---------3-|----------------|-----------|3---------------|

G|-----------|----------------|------------|-----------|
D|-----------|----------------|------------|-----------|
A|5---5-5----|----------------|------5--7-\|----------2|
E|---------5-|6---------------|6---6-------|3-----3-5--|

[Chorus]
G|----------------|------2---------|----------------|----------------|
D|----2-5---------|----3-----------|----0-5---------|----2-5---------|
A|3-3-------------|5-5-------------|2-2-------------|3-3-------------|
E|----------------|----------------|----------------|----------------|

G|--------------------------------|-------------|
D|--------------------------------|--5-3-2------|
A|--------3----------3------------|--------5-3-2|
E|1---3-------3---1-----3---------|3------------|

G|----------------|------2---------|----------------|----------------|
D|----2-5---------|----3-----------|----0-5---------|----2-5---------|
A|3-3-------------|5-5-------------|2-2-------------|3-3-------------|
E|----------------|----------------|----------------|----------------|

G|-----------------------------|---------------|
D|-----------------------------|---------------|
A|--------3----------3---------|--------------2|
E|1---3-------3---1-----3------|3-3---3-3-3-5--|

[Verse 2]
G|----------|-----------|-----------|----------------|
D|----------|------5-5-5|-----------|----------------|
A|3----5----|3----------|3---3-5--3-|----------------|
E|--------3-|-----------|-----------|3---------------|

G|-----------|----------------|------------|-----------|
D|-----------|----------------|------------|-----------|
A|5---5-5----|----------------|------5--7-\|----------2|
E|---------5-|6---------------|6---6-------|3-----3-5--|

G|------------|-----------|-----------|----------------|
D|------------|-----------|-----------|----------------|
A|3---3-5--7-\|3---------2|3---3-5--3-|----------------|
E|------------|------3-5--|-----------|3---------------|

G|----------|----------------|------------|-----------|
D|----------|----------------|------------|-----------|
A|5----5----|----------------|------5--7-\|----------2|
E|--------5-|6---------------|6---6-------|3-----3-5--|

[Chorus]
G|----------------|------2---------|----------------|------------|
D|----2-5---------|----3-----------|----0-5---------|----2-5-----|
A|3-3-------------|5-5-------------|2-2-------------|3-3-------3-|
E|----------------|----------------|----------------|------------|

G|---------------------------------|-------------|
D|---------------------------------|--5-3-2------|
A|--------3----------3-------------|--------5-3-2|
E|1---3-------3---1-----3---3-3----|3------------|

G|----------------|------2---------|----------------|------------|
D|----2-5---------|----3-----------|----0-5---------|----2-5-----|
A|3-3-------------|5-5-------------|2-2-------------|3-3--------3|
E|----------------|----------------|----------------|------------|

G|---------------------------------|------------|
D|---------------------------------|------------|
A|--------3----------3-------------|-----------2|
E|1---3-------3---1-----3---3-3----|3--3-3-3-5--|

[Instrumental]
G|-----------|----------------|-----------|----------|
D|-----------|----------------|-----------|----------|
A|3---3-5----|3---------------|3---3-5--3-|----------|
E|---------3-|---------------3|-----------|3-----3--5|

G|-----------|----------------|------------|-----------|
D|-----------|----------------|------------|-----------|
A|5---5-5----|----------------|------5--7-\|----------2|
E|---------5-|6---------------|6---6-------|3-----3-5--|

G|------------|------------|-----------|----------|
D|------------|----5-5-5---|-----------|----------|
A|3---3-5--7-\|3-----------|3---3-5--3-|----------|
E|------------|----------3-|-----------|3-----3--3|

G|-----------|----------------|------------|-----------|
D|-----------|----------------|------------|-----------|
A|5---5-5----|----------------|------5--7-\|----------2|
E|---------5-|6--------------6|6---6-------|3-----3-5--|

[Chorus] 
G|----------------|------2---------|----------------|------------|
D|----2-5---------|----3-----------|----0-5---------|----2-5-----| -|
A|3-3-------------|5-5-------------|2-2-------------|3-3-------3-|  |
E|----------------|----------------|----------------|------------|  |
                                                                    | (x3)
G|---------------------------------|-------------|                  |
D|---------------------------------|--5-3-2------|                  |
A|--------3----------3-------------|--------5-3-2| -----------------|
E|1---3-------3---1-----3---3-3----|3------------|

G|---------------|---------------|---------------|---------------|
D|---------------|---------------|---------------|---------------|
A|3--------------|----(vocal)----|----(vocal)----|(vocal, guitar)|
E|---------------|---------------|---------------|---------------|

G|---------------------------------|-------------|
D|---------------------------------|--5-3-2------|
A|--------3----------3-------------|--------5-3-2|
E|1---3-------3---1-----3---3-3----|3------------|

[Outro]
G|-----------|-----------|-----------|----5-5-5-5-5|
D|-----------|------5-5-5|------5----|-------------|
A|3---3-5----|3----------|3---3------|3------------|
E|---------3-|-----------|---------3-|-------------|

G|-----------|-----------|-----------|----------------|
D|------5----|------5-5-5|-----------|----------------|
A|3---3------|3----------|3---3-5----|3---------------|
E|---------3-|-----------|---------3-|----------------|



***************************

| / slide up
| \ slide down

***************************
Suggest correction
Give kudos to tab author, rate the tab!
1 2 3 4 5
comments
print report bad tab
guest
You may want to rate the tab now too:
select rating
Wanna post a correction for this tab? Suggest correction