Oops, an error
Loading. Please wait.

Rocket Man Bass

version 1
version 1

Whole song

Interactive

18,509 views 69 this week
1 commentread comment
1 2 3 4 5
x 12
add to favorites
launch autoscroll
font size
0
reset
guitar tuner
×
Best way to learn
"Rocket Man"
Autoscroll
slow
fast
+/-
esc
set tempo
stop
Standard Tuning
E, A, D, G

          /3\                /3\
G|12-----12--|--------|12---12--|-----------|--------|--------|
D|--------12-|10------|------12-|10-----1012|13--12--|10------|
A|---------10|--------|-------10|-----------|--------|----13--|
E|-----------|--------|---------|-----------|--------|--------|

  h    ss h    ss
G|----------------|10----------|-------|----------|-------|--------|
D|--------10--1213|----10------|-------|---5----8-|-------|--------|
A|12--1213--------|------8-----|---5-8-|6--------8|---5-8-|6--65--5|
E|----------------|--------1///|6------|----------|6------|--------|

G|---------|-----8--|--------|--------|--------|--------|--------|
D|---------|---68--8|--------|---5--8-|--------|---5--8-|--------|
A|3---33-5-|6-------|-------8|6------8|---5-8--|6------8|---5-8--|
E|---3-----|--------|6--66---|--------|6-------|--------|6-------|

G|--------|---------|-----8--|---------|----------|--------|
D|--------|---------|---68--8|--888-888|---888-888|--------|
A|6--65--5|3---33-5-|6-------|---------|/6--------|--------|
E|--------|---3-----|--------|6--------|----------|3-3-----|

G|--------|--------|--------|--------|--------|----------|
D|--------|--------|--------|--------|--------|----------|
A|3-3-----|--------|3-3---35|6---5---|3-------|-----3--56|
E|--------|3-------|--------|--------|----6---|5--56-----|

                             s
                   ^3^       |            ^3^  (good luck!)
G|--------|/12----12--|------r17--|12----12--|---1217--17-----|
D|3-------|--------12-|10--10e----|-------12-|10------10--1012|
A|--------|---------10|------s----|--------10|----------------|
E|--------|-----------|------t----|----------|----------------|

G|------------|------------|----------|----------|-------|-------|
D|13--1312--12|10--10------|----------|3--53--3--|-------|---5-8-|
A|------------|------13--13|12----3-56|--------63|---5-8-|6------|
E|------------|------------|--5-6-----|----------|6------|-------|

G|-------|--------|---------|---------|---------|-------8-|
D|-------|--------|---------|---------|---------|--------8|
A|---5-8-|6--65--5|3---3-3-5|6---6-6-8|---------|1/6--66--|
E|6------|--------|---3-3---|---6-6---|6--1/66--|---------|

                                                (3:38)
G|--------|-------|---------|--------|--------|-------|
D|--------|---5-8-|-------8-|--8---8-|--------|-------|
A|------5-|6------|--------8|6--65--5|3---33--|6--6--6|
E|6-------|-------|6--------|--------|---3----|--6--6-|
           (very quick)
              ||||             ||||
G|---------|--8888--|-------|--8888-75|--------|--------|
D|--88888--|--------|-------|---------|8-------|--------|
A|-------/8|6-------|---5-8-|6--------|------/8|6-------|
E|6--------|--------|6------|---------|--------|--------|


************************************

| /  Slide up
| r  Release
| t  Tapping
| s  Slap

************************************
Suggest correction
comments
print report bad tab
1 comment total.
0 reply
rileymolnar 71 Jul 28, 2015 09:02 PM

Looks solid. The good luck part can be played on the lower strings to make it easier

(good luck!)
|---1217--17-----|
|10------10--1012|
|----------------|
|----------------|

(good luck!)
|-----17--17-----|
|---17---------12|
|15------15--15--|
|----------------|

guest
You may want to rate the tab now too:
select rating
Wanna post a correction for this tab? Suggest correction