Oops, an error
Loading. Please wait.

Saturday Nights Alright For Fighting bass

version 1
version 1

Whole song

Interactive

61 views 6 this week
no commentswrite comment
1 2 3 4 5
2 more votes to show rating
add to favorites
×
Save as Personal and add changes to this tab that will be seen only by you. Learn more ›
×
You can save this tab as Personal to edit and correct it or add notes. All changes will be seen only by you. Learn more »
launch autoscroll
font size
0
reset
guitar tuner
backing track
0:00
0:00
edit
Autoscroll
slow
fast
+/-
esc
set tempo
stop
[Intro]                                                            
G|--------------------------------|-------------11-12-12-12-12-----|
D|--------------------------------|--------------------------------|
A|--------------------------------|--------------------------------|
E|--------------------------------|--------------------------------|
 
[Verse]                                                              
G|0---0---0-------0-----------0---|0---0---0-------0---------------|
D|--------------------2---0-------|--------------------2---0---3---|
A|--------------------------------|--------------------------------|
E|--------------------------------|--------------------------------|
                                                                    
G|--------------------------------|--------------------------------|
D|3---3---3-------3---0-------3---|----3---3-------3---0-----------|
A|------------------------3-------|------------3-----------3---3---|
E|--------------------------------|--------------------------------|
                                                                     
G|--------------------------------|----------------------------0---|
D|--------------------------------|--------------------0---0-------|
A|3---3---3-------3---0-------3---|----3---3-------3---------------|
E|------------3-----------3-------|--------------------------------|
                                                                    
G|0---0---0---------------0---0---|----0---0---------------0---0---|
D|----------------0---2-----------|----------------0---2-----------|
A|--------------------------------|--------------------------------|
E|--------------------------------|--------------------------------|
                                                                     
G|----0---0-------0-----------0---|----0---0-------0---------------|
D|--------------------2---0-------|--------------------2---0---3---|
A|--------------------------------|--------------------------------|
E|--------------------------------|--------------------------------|
                                                                     
G|--------------------------------|--------------------------------|
D|3---3---3-------3---0-------3---|----3---3-------3---0-----------|
A|------------------------3-------|------------3-----------3---3---|
E|--------------------------------|--------------------------------|
                                                                    
G|--------------------------------|--------------------------------|
D|--------------------------------|----------------------------5---|
A|3---3---3-------3---0-------3---|----3---3-------3---4---5-------|
E|------------------------3-------|--------------3-----------------|
                                                                     
G|----0---0---0-0-0-----------0---|--------------------------------|
D|--------------------2---0-------|5---5---------------------------|
A|--------------------------------|----------------2---3---4---5---|
E|--------------------------------|--------------------------------| 
                                                                    
G|--------------------------------|--------------------------------|
D|----0---0-------0---0---0-------|--------------------------------|
A|--------------------------------|5---5---5-------5---5---4---3---|
E|--------------------------------|--------------------------------|
 
[Chorus]                                                           
G|--------------------------------|--------------------------------|
D|--------------------------------|--------------------------------|
A|3---3---0---------------0---3---|----3---0-------------------1---|
E|------------0---3---------------|------------0---3---3-----------|
                                                                     
G|--------------------------------|--------------------------------|
D|--------------------------------|----------------------------3---|
A|----1-----------------------1---|2---1---------------------------|
E|--------3---0---1-------3-------|--------3---0---1-------3-------|
                                                                     
G|--------------------------------|--------------------------------|
D|----3---0---------------0---3---|----3---0---------------0-------|
A|------------0---3---------------|------------0---3-----------3---|
E|--------------------------------|--------------------------------| 
                                                                    
G|--------------------------------|--------------------------------|
D|--------------------------------|--------------------------------|
A|----3---0---------------0---3---|----3---0---------------0---3---|
E|------------0---3---------------|------------0---3---------------|
                                                                    
G|--------------------------------|--------------------------------|
D|--------------------------------|--------------------------------|
A|----3---0---------------0---3---|----3---0---------------0---1---|
E|------------0---3---------------|------------0---3---------------|
                                                                     
G|--------------------------------|--------------------------------|
D|--------------------------------|----------------------------3---|
A|----1-----------------------1---|----1---------------------------|
E|--------3---0---1-------3-------|--------3---0---1-------3-------|
                                                                     
G|--------------------------------|--------------------------------|
D|----3---0---------------0---3---|----3---0---------------3-------|
A|------------0---3---------------|------------0---3-----------0---|
E|--------------------------------|--------------------------------|
                                                                     
G|--------------------------------|--------------------------------|
D|--------------------------------|--------------------------------|
A|3---3---0---------------0---3---|--------------------------------|
E|------------0---3---------------|----0-------1-------2-------3---|
                                                                     
G|--------------------------------|----3---------------------------|
D|--------5-------5---4---3---1---|------------0-------------------|
A|----5---------------------------|--------------------3-------1---|
E|--------------------------------|--------------------------------|
                                                                     
G|--------------------------------|----------------------------0---|
D|--------------------------------|------------0-------3-----------|
A|----3---3---3---3-------3---3---|----3---3-----------------------|
E|--------------------------------|--------------------------------|
                                                                    
G|--------------------------------|--------------------------------|
D|--------------------------------|------------0-------------------|
A|--------------------------------|--------------------------------|
E|----3-------3---3-----------3---|3---3---------------1-------3---|
                                                                    
G|--------------------------------|----------------------------0---|
D|--------------------------------|------------0-------3-----------|
A|--------------------------------|--------------------------------|
E|3-----------3---3-----------3---|3-------------------------------|
                                                                  
[Verse]                                                              
G|0---0---0-------0-----------0---|0---0---0-------0---------------|
D|--------------------2---0-------|--------------------2---0---3---|
A|--------------------------------|--------------------------------|
E|--------------------------------|--------------------------------|
                                                                    
G|--------------------------------|--------------------------------|
D|3---3---3-------3---0-------3---|----3---3-------3---0-----------|
A|------------------------3-------|------------3-----------3---3---|
E|--------------------------------|--------------------------------|
                                                                    
G|--------------------------------|----------------------------0---|
D|--------------------------------|--------------------0---0-------|
A|3---3---3-------3---0-------3---|----3---3-------3---------------|
E|------------3-----------3-------|--------------------------------|
                                                                     
G|0---0---0---------------0---0---|----0---0---------------0---0---|
D|----------------0---2-----------|----------------0---2-----------|
A|--------------------------------|--------------------------------|
E|--------------------------------|--------------------------------|
                                                                    
G|----0---0-------0-----------0---|----0---0-------0---------------|
D|--------------------2---0-------|--------------------2---0---3---|
A|--------------------------------|--------------------------------|
E|--------------------------------|--------------------------------|
                                                                     
G|--------------------------------|--------------------------------|
D|3---3---3-------3---0-------3---|----3---3-------3---0-----------|
A|------------------------3-------|------------3-----------3---3---|
E|--------------------------------|--------------------------------|
                                                                    
G|--------------------------------|--------------------------------|
D|--------------------------------|----------------------------5---|
A|3---3---3-------3---0-------3---|----3---3-------3---4---5-------|
E|------------------------3-------|--------------3-----------------|
                                                                    
G|----0---0---0-0-0-----------0---|--------------------------------|
D|--------------------2---0-------|5---5---------------------------|
A|--------------------------------|----------------2---3---4---5---|
E|--------------------------------|--------------------------------|
                                                                     
G|--------------------------------|--------------------------------|
D|----0---0-------0---0---0-------|--------------------------------|
A|--------------------------------|5---5---5-------5---5---4---3---|
E|--------------------------------|--------------------------------|
 
[Chorus]                                                           
G|--------------------------------|--------------------------------|
D|--------------------------------|--------------------------------|
A|3---3---0---------------0---3---|----3---0-------------------1---|
E|------------0---3---------------|------------0---3---3-----------|
                                                                     
G|--------------------------------|--------------------------------|
D|--------------------------------|----------------------------3---|
A|----1-----------------------1---|2---1---------------------------|
E|--------3---0---1-------3-------|--------3---0---1-------3-------|
                                                                    
G|--------------------------------|--------------------------------|
D|----3---0---------------0---3---|----3---0---------------0-------|
A|------------0---3---------------|------------0---3-----------3---|
E|--------------------------------|--------------------------------|
                                                                     
G|--------------------------------|--------------------------------|
D|--------------------------------|--------------------------------|
A|----3---0---------------0---3---|----3---0---------------0---3---|
E|------------0---3---------------|------------0---3---------------|
                                                                     
G|--------------------------------|--------------------------------|
D|--------------------------------|--------------------------------|
A|----3---0---------------0---3---|----3---0---------------0---1---|
E|------------0---3---------------|------------0---3---------------|
                                                                     
G|--------------------------------|--------------------------------|
D|--------------------------------|----------------------------3---|
A|----1-----------------------1---|----1---------------------------|
E|--------3---0---1-------3-------|--------3---0---1-------3-------|
                                                                     
G|--------------------------------|--------------------------------|
D|----3---0---------------0---3---|----3---0---------------3-------|
A|------------0---3---------------|------------0---3-----------0---|
E|--------------------------------|--------------------------------|
                                                                     
G|--------------------------------|--------------------------------|
D|--------------------------------|--------------------------------|
A|3---3---0---------------0---3---|--------------------------------|
E|------------0---3---------------|----0-------1-------2-------3---|
                                                                     
G|--------------------------------|----3---------------------------|
D|--------5-------5---4---3---1---|------------0-------------------|
A|----5---------------------------|--------------------3-------1---|
E|--------------------------------|--------------------------------|
                                                                     
G|--------------------------------|----------------------------0---|
D|--------------------------------|------------0-------3-----------|
A|----3---3---3---3-------3---3---|----3---3-----------------------|
E|--------------------------------|--------------------------------|
                                                                    
G|--------------------------------|--------------------------------|
D|--------------------------------|------------0-------------------|
A|--------------------------------|--------------------------------|
E|----3-------3---3-----------3---|3---3---------------1-------3---| 
                                                                    
G|--------------------------------|----------------------------0---|
D|--------------------------------|------------0-------3-----------|
A|--------------------------------|--------------------------------|
E|3-----------3---3-----------3---|3-------------------------------|
 
[Bridge]                                                            
G|--------------------------------|--------------------------------|
D|--------------------------------|--------------------------------|
A|3---3---3---3---3---3---3---3---|3---3---3---3---3---3---3---3---|
E|--------------------------------|--------------------------------|
                                                                     
G|--------------------------------|--------------------------------|
D|--------------------------------|--------------------------------|
A|1---1---1---1---1---1---1---1---|1---1---1---1---1---1---1---1---| (x2)
E|--------------------------------|--------------------------------|
 
G|--------------------------------|--------------------------------|
D|--------------------------------|--------------------------------|
A|3---3---3---3---3---3---3---3---|3---3---3---3---3---3---0-------|
E|--------------------------------|----------------------------3---|
                                                                    
G|--------------------------------|--------------------------------|
D|--------------------------------|--------------------------------|
A|3---3---3---3---3---3---3---3---|3---3---3---3---3---3---3---3---|
E|--------------------------------|--------------------------------|
                                                                    
G|--------------------------------|--------------------------------|
D|--------------------------------|--------------------------------|
A|1---1---1---1---1---1---1---1---|1---1---1---1---1---1---1---1---| (x2)
E|--------------------------------|--------------------------------|
 
G|--------------------------------|--------------------------------|
D|--------------------------------|--------------------------------|
A|3---3---3---3---3---3---3---3---|3---3---3---3---3---2---3---4---|
E|--------------------------------|--------------------------------|
                                                                    
G|--------------------------------|--------------------------------|
D|0---0---0---0---0---0---0---0---|0---0---0---0---0---0-----------|
A|--------------------------------|----------------------------0---|
E|--------------------------------|------------------------3-------|
                                                                    
[Chorus]                                                           
G|--------------------------------|--------------------------------|
D|--------------------------------|--------------------------------|
A|3---3---0---------------0---3---|----3---0-------------------1---|
E|------------0---3---------------|------------0---3---3-----------|
                                                                    
G|--------------------------------|--------------------------------|
D|--------------------------------|----------------------------3---|
A|----1-----------------------1---|2---1---------------------------|
E|--------3---0---1-------3-------|--------3---0---1-------3-------|
                                                                   
G|--------------------------------|--------------------------------|
D|----3---0---------------0---3---|----3---0---------------0-------|
A|------------0---3---------------|------------0---3-----------3---|
E|--------------------------------|--------------------------------|
                                                                    
G|--------------------------------|--------------------------------|
D|--------------------------------|--------------------------------|
A|----3---0---------------0---3---|----3---0---------------0---3---|
E|------------0---3---------------|------------0---3---------------|
                                                                     
G|--------------------------------|--------------------------------|
D|--------------------------------|--------------------------------|
A|----3---0---------------0---3---|----3---0---------------0---1---|
E|------------0---3---------------|------------0---3---------------|
                                                                     
G|--------------------------------|--------------------------------|
D|--------------------------------|----------------------------3---|
A|----1-----------------------1---|----1---------------------------|
E|--------3---0---1-------3-------|--------3---0---1-------3-------|
                                                                     
G|--------------------------------|--------------------------------|
D|----3---0---------------0---3---|----3---0---------------3-------|
A|------------0---3---------------|------------0---3-----------0---|
E|--------------------------------|--------------------------------| 
                                                                    
G|--------------------------------|--------------------------------|
D|--------------------------------|--------------------------------|
A|3---3---0---------------0---3---|--------------------------------|
E|------------0---3---------------|----0-------1-------2-------3---|
                                                                    
G|--------------------------------|----3---------------------------|
D|--------5-------5---4---3---1---|------------0-------------------|
A|----5---------------------------|--------------------3-------1---|
E|--------------------------------|--------------------------------| 
                                                                    
G|--------------------------------|----------------------------0---|
D|--------------------------------|------------0-------3-----------|
A|----3---3---3---3-------3---3---|----3---3-----------------------|
E|--------------------------------|--------------------------------|
                                                                     
G|--------------------------------|--------------------------------|
D|--------------------------------|------------0-------------------|
A|--------------------------------|--------------------------------|
E|----3-------3---3-----------3---|3---3---------------1-------3---|
                                                                     
G|--------------------------------|----------------------------0---|
D|--------------------------------|------------0-------3-----------|
A|--------------------------------|--------------------------------|
E|3-----------3---3-----------3---|3-------------------------------|
 
[Bridge]                                                            
G|--------------------------------|--------------------------------|
D|--------------------------------|--------------------------------|
A|3---3---3---3---3---3---3---3---|3---3---3---3---3---3---3---3---|
E|--------------------------------|--------------------------------|
                                                                     
G|--------------------------------|--------------------------------|
D|--------------------------------|--------------------------------|
A|1---1---1---1---1---1---1---1---|1---1---1---1---1---1---1---1---| (x2)
E|--------------------------------|--------------------------------|
                                                                    
G|--------------------------------|--------------------------------|
D|--------------------------------|--------------------------------|
A|3---3---3---3---3---3---3---3---|3---3---3---3---3---3---0-------|
E|--------------------------------|----------------------------3---|
                                                                    
G|--------------------------------|--------------------------------|
D|--------------------------------|--------------------------------|
A|3---3---3---3---3---3---3---3---|3---3---3---3---3---3---3---3---|
E|--------------------------------|--------------------------------|
                                                                    
G|--------------------------------|--------------------------------|
D|--------------------------------|--------------------------------|
A|1---1---1---1---1---1---1---1---|1---1---1---1---1---1---1---1---| (x2)
E|--------------------------------|--------------------------------|
                                                                    
G|--------------------------------|--------------------------------|
D|--------------------------------|--------------------------------|
A|3---3---3---3---3---3---3---3---|3---3---3---3---3---2---3---4---|
E|--------------------------------|--------------------------------|
                                                                    
G|--------------------------------|--------------------------------|
D|0---0---0---0---0---0---0---0---|0---0---0---0---0---0-----------|
A|--------------------------------|----------------------------0---|
E|--------------------------------|------------------------3-------|
 
[Outro]                                                             
G|--------2---2---0---0---2-------|--------2---2---0---0---2-------|
D|--------------------------------|--------------------------------|
A|3---3-----------------------3---|----3---------------------------|
E|--------------------------------|--------------------------------|
                                                                    
G|--------0---0-----------0-------|--------0---0-----------0-------|
D|----------------3---3-----------|----------------3---3-----------|
A|1---1-----------------------1---|----1---------------------------| (x2)
E|--------------------------------|--------------------------------|
                                                                    
G|--------2---2---0---0---2-------|--------2---2---0---0---2-------|
D|--------------------------------|--------------------------------|
A|3---3-----------------------3---|----3---------------------------|
E|--------------------------------|--------------------------------|
                                                                    
G|--------2---2---0---0---2-------|--------2---2---0---0---2-------|
D|--------------------------------|--------------------------------|
A|3---3-----------------------3---|----3---------------------------| (x2)
E|--------------------------------|--------------------------------|
                                                                 
G|--------2---2---0---0---2-------|--------2---2---0---0---2-------|
D|--------------------------------|--------------------------------|
A|3---3-----------------------3---|----3---------------------------|
E|--------------------------------|--------------------------------|

            
            
Suggest correction
Creating personal tab
Creating personal tab
You can edit any tab online and save it as your Personal.

You can edit, replace or remove any tab part or add personal notes – all changes will be seen only by you.

Personal tabs can be accessed anytime from any device, even offline.
Learn more »
Give kudos to tab author, rate the tab!
1 2 3 4 5
comments
print report bad tab
guest
You may want to rate the tab now too:
select rating
Wanna post a correction for this tab? Suggest correction