Oops, an error
Loading. Please wait.

Step Into Christmas bass

112 views 6 this week
no commentswrite comment
1 2 3 4 5
3 more votes to show rating
add to favorites
×
Save as Personal and add changes to this tab that will be seen only by you. Learn more ›
×
You can save this tab as Personal to edit and correct it or add notes. All changes will be seen only by you. Learn more »
launch autoscroll
font size
0
reset
guitar tuner
edit
Autoscroll
slow
fast
+/-
esc
set tempo
stop
(Bass Start - 00:07)

[Intro]
(00:07 ~ )
G|-10-9-7-----7-------------|-10-9-7-----7--------------|-10-9-7-----7|
D|--------7-9-----4--5--6-7-|--------7-9------4--5--6-7-|--------7-9--|
A|--------------------------|---------------------------|-------------|
E|--------------------------|---------------------------|-------------|

[Verse]
G|------------|------------|------------------|------------|----------------|
D|------------|----------4-|-5---5-5---5--4---|------------|----------------|
A|-5---5-5---5|-5---5-7----|----------------7-|-5---5-5----|-5--8-\7-5-----5|
E|------------|------------|------------------|-----------5|-----------5-7--|

G|------------|----------------|------------------|------------|--------------|
D|------------|----------------|-5---5-5---5--4---|------------|-----5/4--5--6|
A|-5---5-5---5|-5---5-5h7--5h7-|----------------7-|-5---5-5---5|-5------------|
E|------------|----------------|------------------|------------|--------------|

[Pre-Chorus]
G|---------(9---|-----------7----|-------------|--------------|
D|-7----7-----7)|-5-------5---5--|-----4----5-6|-7---7-7-5---5|
A|--------------|------7--------5|-5------5----|-----------7--|
E|--------------|----------------|-------------|--------------|

G|------------|-------------|------------|--------------|---------------------------------|
D|-7---7-7---7|-5---5-5-----|------------|-------------5|-7--------------------7--9--10-10|
A|------------|----------5-6|-7---7-7---7|--5-7--7-5-7--|---------------------------------|
E|------------|-------------|------------|--------------|-----(5-5-5)-5-7-5-5-------------|

[Chorus]
G|---------9-10-11---|---------9-10-11---|----------------------|------------------|
D|-12----------------|-12----------------|--------------12------|-------------10-11|
A|-------------------|-------------------|-10--10-10-10----10-11|-12---12-12-------|
E|-----10----------10|-----10----------10|----------------------|------------------|

G|---------9-10-11---|---------9-10-11---|-------------------|-------------------------|
D|-12----------------|-12----------------|---------12--------|--------------------14---|
A|-------------------|-------------------|-10--10-----10-9---|---------(14-14)-14----14|
E|-----10----------10|-----10----------10|-----------------12|-12--12------------------|

G|-------------------------|------------------------|
D|-------------------------|-15-14-12---------------|
A|-12--12--(12-14)-12------|----------15-14---------|
E|--------------------14-12|----------------15-14-12|

[Verse]
G|-------------------|--------------|---------------------|------------|-------7-----7)--|
D|-------------------|-----------4-4|-5------5)-5--5--4---|------------|----7-----(7-----|
A|-------------------|-5---5-7-7----|-----(5------------7-|-5-----5----|-5--------------5|
E|-10---(5-5)-5-5-7-5|--------------|---------------------|-----5-----5|-----------------|

G|------------|--------------|------------------|-----------|-----------------|
D|------------|--------------|-5---5-5---5--4---|-----------|-----------------|
A|-5---5-5---5|-5---5-7-7-5-7|----------------7-|-5---5-5-5-|-5--8-\7--5------|
E|------------|--------------|------------------|-----------|------------5-7-5|

[Pre-Chorus]
G|---------------|---------7----|--------------|----------------|
D|-7---7-7--(9-7)|-5--5-5----5-x|--------------|-7--7--9--10-9-7|
A|---------------|--------------|-5--5-5--7-5-x|----------------|
E|---------------|--------------|--------------|----------------|

G|-------------9|----7-------5-------|-------------|--------------|----------------------------|
D|-10-\9-7--7---|-5----5--(5---5)-5-5|-------------|--------------|-----------------9-10--11---|
A|--------------|--------------------|-7--7-7--7---|--7-----------|----------------------------|
E|--------------|--------------------|------------7|----0--3-3-4-4|-5--5-5-7-7-8-8-------------|

[Chorus]
G|---------9-10-11---|---------9-10-11---|--------------|--------------------------|
D|-12----------------|-12----------------|-----------9--|------------------12------|
A|-------------------|-------------------|-10--10-10----|-12--12-12--12/14----14-12|
E|-----10----------10|-----10----------10|--------------|--------------------------|

G|---------9-10-11---|---------9-10-11---|-----------------------|------------------|
D|-12----------------|--12---------------|---------12------------|------------------|
A|-------------------|-------------------|-10--10-----10--(10-10)|---------11-11--11|
E|-----10----------10|------10---------10|-----------------------|--12-12-----------|

G|-----------------------|---------------|--|
D|-----------------------|---------------|--|
A|-12--12--(12-10)-10--10|-12---10--9-7-7|-5|
E|-----------------------|---------------|--|

[Instrumental]
(02:03 ~ 02:06) - No Bass Guitar

(02:07 ~ )
G|--------|---------|---------|------------|------------|--|
D|-12--11-|-9-------|---------|------------|------------|--|
A|--------|---------|-7-------|----2--3--4-|----2--3--4-|-5|
E|--------|---------|---------|-5----------|--5---------|--|

[Interlude]
(02:16 ~ 02:19) - No Bass Guitar

(02:20 ~ )
G|-10-9-7-----7------------------|-10-9-7-----7------------------|-10-9-7-----7|
D|--------7-9------(4-4)--5-6-7--|--------7-9------(4-4)--5--6-7-|--------7-9--|
A|-------------------------------|-------------------------------|-------------|
E|-------------------------------|-------------------------------|-------------|

[Verse]
G|------------|-------------|------------------|-----------|----------------|
D|------------|-------------|------------------|-----------|----------------|
A|-5---5-5----|-5---5----5--|-----------2----2-|-5---5-5---|-5-8-\7--5------|
E|-----------5|--------5---5|-3---3-3------3---|-----------|-----------5-7-5|

G|------------|---------------|--------------------|------------|----------------|
D|------------|----------(7---|-5----5-5---5-\4--2-|------------|----------------|
A|-5---5-5---5|-5---5-5-----5)|--------------------|-5---5-5---5|--5-8-\7-5------|
E|------------|---------------|--------------------|------------|-----------5-7-5|

[Pre-Chorus]
G|------------|----------------|------------|-----------9--|
D|------------|------5---------|-------4-5-5|-7---7-7-7---7|
A|------------|---------------3|-5--5-------|--------------|
E|-5--5--5-5-5|-3--3----3-3-3--|------------|--------------|

G|--------(9----9--|---------(7-------|-----------------|----------------|-----------------------------|
D|-7---7-----7)---7|-5--5-5-----5)-5-5|-----------------|----------------|-------------7---(9-10-11)---|
A|-----------------|------------------|-7--7-7--(5-7)-7-|-7--------------|-------9-7-------------------|
E|-----------------|------------------|-----------------|----0-3-5-7--7-6|-5--5/-----------------------|

[Chorus]
G|---------9-10-11---|---------9-10-11|-------------------------|-------------------------|
D|-12----------------|-12-------------|-----12-----(12-----12---|--------------------12-12|
A|-------------------|----------------|-10-----10------10)----10|-12--12-12--(12-14)------|
E|-----10----------10|-----10---------|-------------------------|-------------------------|

G|------------9-10-11---|---------9-10-11|-------------------|--------------------|
D|-12-------------------|-12-------------|-----12-----12-----|--------------------|
A|----------------------|----------------|-10-----10-----10-9|-----14--------14---|
E|-----10-10----------10|-----10---------|-------------------|-12-----12--12----12|

G|------------------------------|----------------------|
D|------------------------------|----15--14--12--------|
A|-12-12-12-12-(12-10)--10-10-11|-12-------------15--12|
E|------------------------------|----------------------|

G|--------------|------------|----------------|--------------|
D|-----7-----7-7|----7------7|-5--5-----------|--------------|
A|-5-5----5-----|-5-----5-5--|------7--5-5----|----4--------4|
E|--------------|------------|-------------7-6|-5-----5-5-7--|

G|-----------------|-------------------|--------------------|-----------------|
D|-----------------|-------------------|-5--(5------5--(5---|-----------------|
A|-5-----5--(5-----|-5--(5------5-5-7-5|-------5)-7-------5)|-7--7---7---7-7--|
E|----5--------5)-7|-------5)-7--------|--------------------|------7---7-----7|

G|-----------------|-----------------|
D|-----------------|----------------7|
A|-----------------|----------7-7-9--|
E|-5--5--(5-7)-7--7|-9--10-10--------|

G|-------------------|-----------------|--------------|--------------7-7|
D|---------9--(x-7)-9|-------9--(x-7)-9|-5--5---------|---7-7--(x-9)----|
A|-6/7--5------------|-5--5------------|-------7-7-5--|-----------------|
E|-------------------|-----------------|-------------7|-5---------------|

G|-7--7--------------|------------------|---------------------|-----------------|
D|------9--7--(x-----|------------------|---------------------|-----------------|
A|---------------9)-7|-5--5--(0-2)-2h5p2|------2--(2-5)--(5-2)|------------5----|
E|-------------------|------------------|-3--3----------------|-0--5-6-7-7---7-7|

G|----------------------|-----5-6-6-6------|
D|-----4--(4-5)--(5-6)-6|-7-7---------7-5h7|
A|-7-7------------------|------------------|
E|----------------------|------------------|

[Outro]
G|------------5h7|--------------|----------------------|---------------------|
D|-------7--7----|-----------7-6|-5--(x------5--(5-5)-6|-7--(x---------------|
A|-5--5----------|-5--5--5-5----|-------5)-7-----------|-------7/9)-9-7------|
E|---------------|--------------|----------------------|----------------9-7-5|

G|-------------5-|-------------|---------------------|-------------|--------------|----------------|
D|----7------7---|-------------|-5--(x-----5--(x-----|-------------|--------------|---------4-5-6-7|
A|-5-----5-5-----|-5-5--5-5-7-5|-------5)--------5)-6|-7-----7-----|-------4-4-4-5|-7-7-7-7--------|
E|---------------|-------------|---------------------|----7-----7-6|-5--5---------|----------------|

G|-------------|---------------|----------------|------------------|
D|----7/9--7--9|------7/9--7--9|-5--5-5---------|-----4/5-6-7-7-7--|
A|-5-----------|-5--5----------|---------7-7-5--|-----------------7|
E|-------------|---------------|---------------7|-5-5--------------|
                                            (fade out)
G|----6/7---------|---------------|-------------------|
D|----------------|------------9-7|-5-5---------------|
A|-5-------5-5----|-5------5-5----|-----7--(7-7)-5-5--|
E|-------------5-7|----5-7--------|------------------7|


***********************************

| / Slide up
| \ Slide down
| h Hammer-on
| p Pull-off
| x Dead note
| (n-n) Fast

***********************************
Suggest correction
Creating personal tab
Creating personal tab
You can edit any tab online and save it as your Personal.

You can edit, replace or remove any tab part or add personal notes – all changes will be seen only by you.

Personal tabs can be accessed anytime from any device, even offline.
Learn more »
Give kudos to tab author, rate the tab!
1 2 3 4 5
comments
print report bad tab
guest
You may want to rate the tab now too:
select rating
Wanna post a correction for this tab? Suggest correction