Oops, an error
Loading. Please wait.

Step Into Christmas Tab

20,970 views 6 this week
2 commentsread comments
1 2 3 4 5
excellent!
x 9
add to favorites
launch autoscroll
font size
0
reset
how to read this tab
guitar tuner
Autoscroll
slow
fast
+/-
esc
set tempo
stop
Help us to improve Ultimate-Guitar.com Take our survey!
×
Author
e|------------------------2---2-------------------------|
B|------------------------3---3-------------------------|
G|------------------------2---2-------------------------|
D|--3---2---0---------0---0---0-------------------------|
A|--------------0h2------------------------------0---0--|
E|----------------------------------2---3---4-----------|

e|------------------------2---2-------------------------|
B|------------------------3---3-------------------------|
G|------------------------2---2-------------------------|
D|--3---2---0---------0---0---0-------------------------|
A|--------------0--2----------------------------0---0---|
E|----------------------------------2---3---4-----------|


Chorus Chords: Strum each a couple of times

D              G                 A               D

D              G                 E                A 
Suggest correction
comments
print report bad tab
2 comments total.
0 reply
starg8nut 10 wrote on December 11 2007, 05:52 pm

Just about perfect, except there is one minor thing that is thrown in the song that's a little more subtle in places:

e|------------------------2-0-2-------------------------|
B|------------------------3-3-3-------------------------|
G|------------------------2-2-2-------------------------|
D|--3---2---0---------0---0-0-0-------------------------|
A|--------------0--2----------------------------0-------|
E|----------------------------------2---3---4-----------|



Otherwise awesome!

0 reply
Ibanez2427 51 wrote on December 18 2007, 06:16 pm

pretty good job. thanks.

guest
You may want to rate the tab now too:
select rating
Wanna post a correction for this tab? Suggest correction