Oops, an error
Loading. Please wait.

Theme From A Non-Existent Tv Series Bass Tab

1,039 views 408 this week
no commentswrite comment
1 2 3 4 5
3 more votes to show rating
add to favorites
launch autoscroll
font size
0
reset
guitar tuner
Autoscroll
slow
fast
+/-
esc
set tempo
stop
Help us to improve Ultimate-Guitar.com Take our survey!
×
Author
Difficulty
novice
[Verse 1] 
G|-----------|----------|-------------------|----------|----------|-------------------|
D|---------7-|--------7-|--------7----------|----------|----------|-------------------|
A|--5----8---|-5----8---|-5----8---5--------|--------5-|--------5-|--------5----------|
E|-----------|----------|---------------x-5-|-3----6---|-3----6---|-3----6---3----3-6-|

G|-------------------|-------------|
D|-------------------|-------------|
A|-------------------|-------------|
E|-6----6-6-6----3-6-|-5----5-5-5--|

G|-----------|----------|-------------------|----------|----------|-------------------|
D|---------7-|--------7-|--------7----------|----------|----------|-------------------|
A|--5----8---|-5----8---|-5----8---5--------|--------5-|--------5-|--------5----------|
E|-----------|----------|---------------x-5-|-3----6---|-3----6---|-3----6---3----3-6-|

G|-------------------|---------------|-----------|----------|-------------------|
D|---------------8---|---------------|---------7-|--------7-|--------7----------|
A|-------------------|---------------|--5----8---|-5----8---|-5----8---5------6-|
E|-6----6-6-6------6-|-5----5-5-5----|-----------|----------|---------------6---|

[Chorus]
G|-------------------|-------------------|-----------------------|-----------------------|
D|-------------------|-------------------|-----------------------|--------------12---12\-|
A|-6------6-6----6-6-|-8----8-8-8----8-8-|-10----10-10-10--------|---------9-12----------|
E|------6------------|-------------------|-------------------8-9-|-10---10---------------|

G|-------------------|-------------------|-------------------------|-----------------------|
D|-------------------|-------------------|-------------------------|--------------12---12\-|
A|-6----6-6-6----6-6-|-8----8-8-8----8-8-|-10----10-10-10---10-----|---------9-12----------|
E|-------------------|-------------------|---------------------8-9-|-10---10---------------|

[Verse 2]
G|----------|----------|-------------------|-----------|----------|-------------------|
D|----------|----------|-------------------|---------5-|--------5-|--------5----------|
A|--------5-|--------5-|--------5--------5-|--3----6---|-3----6---|-3----6---3----3-5-|
E|-3----6---|-3----6---|-3----6---3----6---|-----------|----------|-------------------|

G|---------------8---|----------------|
D|-------------------|----------------|
A|-6----6-6-6------6-|-5----5-5-5/18\-|
E|-------------------|----------------|

G|----------|----------|---------------|-----------|----------|-------------------|
D|----------|----------|---------------|---------5-|--------5-|--------5----------|
A|--------5-|--------5-|--------5------|--3----6---|-3----6---|-3----6---3----3-5-|
E|-3----6---|-3----6---|-3----6---3----|-----------|----------|-------------------|

G|-------------------|---------------|-----------|----------|-------------------|
D|-------------------|---------------|-----------|----------|-------------------|
A|-6----6-6-6------6-|-5----5-5-5----|---------5-|--------5-|--------5--------6-|
E|---------------6---|---------------|--3----6---|-3----6---|-3----6---3----6---|

[Outro]
G|-------------------|-------------------|-----------------------|-----------------------|
D|-------------------|-------------------|-----------------------|--------------12---12\-|
A|-6------6-6----6-6-|-8----8-8-8----8-8-|-10----10-10-10--------|---------9-12----------|
E|------6------------|-------------------|-------------------8-9-|-10---10---------------|

G|-------------------|-------------------|-------------------------|-----------------------|----|
D|-------------------|-------------------|-------------------------|--------------12---12\-|----|
A|-6----6-6-6----6-6-|-8----8-8-8----8-8-|-10----10-10-10---10-----|---------9-12----------|----|
E|-------------------|-------------------|---------------------8-9-|-10---10---------------|-3--|

*************************

| / : slide up
| \ : slide down
| x : dead note

*************************

in regular sequence!
Suggest correction
Give kudos to tab author, rate the tab!
1 2 3 4 5
comments
print report bad tab
guest
You may want to rate the tab now too:
select rating
Wanna post a correction for this tab? Suggest correction