Oops, an error
Loading. Please wait.

White Lady White Powder bass

53 views 1 this week
no commentswrite comment
1 2 3 4 5
3 more votes to show rating
add to favorites
×
Save as Personal and add changes to this tab that will be seen only by you. Learn more ›
×
You can save this tab as Personal to edit and correct it or add notes. All changes will be seen only by you. Learn more »
launch autoscroll
font size
0
reset
guitar tuner
edit
Autoscroll
slow
fast
+/-
esc
set tempo
stop
Author
Difficulty
Bass Start : 00:14 


   [verse 1]
G|-------------|-------------|-------------|---------------------|
D|----3---3-3--|--3----------|-------------|---------------------|
A|--3----------|----5---5-5--|-------------|----8----------------|
E|-------------|-------------|--5-6---6-6--|--8---5-6-8---8-7-6--|


G|-------|-------------|-------------|--------------|--------|
D|-------|-------------|-------------|-----5--------|--.-----|
A|-------|--3-5---5-5--|--5-6---6-6--|--6-----6-5\--|--3-----|
E|--6-6--|-------------|-------------|--------------|-----1--|


   [verse 2]
G|-------------|-------------|-------------|---------------------|
D|----3---3-3--|--3----------|-------------|---------------------|
A|--3----------|----5---5-5--|-------------|----8----------------|
E|-------------|-------------|--5-6---6-6--|--8---5-6-8---8-7-6--|


G|-------|-------------|------------------|--------------|--------|
D|-------|-------------|------------------|-----5--------|--.-----|
A|-------|--3-5---5-5--|--5-6---6-6--13\--|--6-----6-5\--|--3-----|
E|--6-6--|-------------|------------------|--------------|-----1--|


   [verse 3]
G|---------------|----------------|---------------|-----------------|
D|---------------|----3-----------|---------------|--3p2h3----------|
A|------------3--|--3-----3----0--|--------3---3--|--------3p2h3----|
E|--5---6---6----|----------1-----|--6---6--------|--------------1--|


G|---------------|--------------|---------------|---------------|
D|---------------|--------------|---------------|--3------3--2--|
A|--------3---3--|--5---5-5--3--|--------3---3--|----3----------|
E|--6---6--------|--------------|--6---6--------|------1--------|


   
G|---------------|---------------|---------------|-----------------|
D|---------------|---------------|---------------|----------3-5-6--|
A|--5---5-5---5--|--3---3-3------|---------------|-----3/5---------|
E|---------------|------------5--|--6---6-6---6--|--6--------------|


G|-----------|--------------|----------------|-----------|-------------|
D|--7--------|--------------|----------------|--3---3-3--|-------------|
A|------7----|--5---5-5--3--|--------3--5-3--|-----------|--3-5---5-5--|
E|--------5--|--------------|--6---6---------|-----------|-------------|


G|-------------|-------------------|
D|-------------|-------------------|
A|-------------|----3---3333-5-3---|
E|--5-6---6-6--|--6----------------|


  [verse 4]
G|-----------|-------------|-------------|--------------------|
D|--3---3-3--|-------------|-------------|----3---------------|
A|-----------|--3-5---5-5--|-------------|--3---0-1-3----3-2--|
E|-----------|-------------|--5-6---6-6--|-------------1------|


G|-----------|-------------|-------------|--------------|---------------------|
D|-----------|-------------|-------------|-----5--------|--.-----------5-3----|
A|--1---1-1--|--3-5---5-5--|--5-6---6-6--|--6-----6-5\--|--3---------------5--|
E|-----------|-------------|-------------|--------------|-----1---------------|


   [verse 5]
G|-----------|-------------|-------------|-------------------|
D|--3---3-3--|-------------|-------------|----3--------------|
A|-----------|--3-5---5-5--|-------------|--3---0-1-3---3-2--|
E|-----------|-------------|--5-6---6-6--|-------------------|


G|--------3--------|--------------|--------------|--------------|--------------------------|
D|------3---3------|--------------|--------------|-----5--------|----3----------3--3-------|
A|--1---------1-3--|--5---5-5--5--|--6---6-6--6--|--6-----6-5\--|--3-----------------0--3--|
E|-----------------|--------------|--------------|--------------|------1-------------------|


   [verse 6]
G|---------------|--------------|---------------|----------------|
D|---------------|--3---3-------|---------------|--3--3-5-3------|
A|--------3---3--|--------0--3--|--------3---3--|-----------5-3--|
E|--6---6--------|--------------|--6---6--------|----------------|


G|---------------|--------------|---------------|---------------|
D|---------------|--------------|---------------|--------3-3-2--|
A|--------3---3--|--5---5-5--3--|--------3---3--|-----3---------|
E|--6---6--------|--------------|--6---6--------|--1------------|


   
G|---------------|---------------|--------------------------|
D|---------------|---------------|------------8-------------|
A|--5---5-5---5--|--3---3-3---3--|--------------8-----------|
E|---------------|---------------|--6---6-6-------5-6--6-8--|


G|-------------------|----------------|--------------|----------------|---------------|
D|-------------------|----------------|--------------|--3---3-3--3-5--|---------------|
A|----------4-4-4-4--|--5-5-5-5-5--3--|--------3--5--|----------------|--5---5-5---3--|
E|--5-5-5-5----------|----------------|--6---6-------|----------------|---------------|


G|------------------|---------------|
D|------------------|---------------|
A|--1---1-1--x-3/5--|--3-3-3-3-5-3--|
E|------------------|---------------|


   [instrumental]
G|-----------|-------------|-------------|------------------|
D|--------3--|-------------|-------------|------------------|
A|------3----|--3-5---5-5--|-------------|--3---0-1-3--3-2--|
E|--1--------|-------------|--5-6---6-6--|----1-------------|


G|-----------|-------------|--------------8------|--------------|-----------------------|
D|-----------|-------------|----------------8----|-----5--------|--.-------------3--3\--|
A|--1---1-1--|--3-5---5-5--|--4-5-6---6-6-----6--|--6-----6-5\--|--3-----------3--------|
E|-----------|-------------|---------------------|--------------|-----1-----------------|


   [verse 7]
G|-----------|-------------|-------------|-------------------|
D|--------3--|-------------|-------------|----3--------------|
A|------3----|--3-5-----5--|--3-1---1-1--|--3---0-1-3---3-2--|
E|--1--------|--------5----|-------------|-------------------|


G|-----------|-------------|--------8------|--------------|--------------------|
D|-----------|-------------|----------8----|-----5--------|--.-----------------|
A|--1---1-1--|--3-5---5-5--|--5-6-------6--|--6-----6-5\--|--3-----------0--3--|
E|-----------|-------------|---------------|--------------|-----1--------------|


   [verse 8]
G|---------------|------------------|---------------|-----------------|
D|---------------|--3---353---------|---------------|--3p2h3----------|
A|--------3---3--|----------5-3-----|--------3---3--|--------3p2h3----|
E|--6---6--------|---------------5--|--6---6--------|--------------1--|


G|---------------|--------------|-----------------|---------------|
D|---------------|--------------|-----------------|--3-----3-3-2--|
A|--------3---3--|--5---5-5--3--|----------3---3--|------3--------|
E|--6---6--------|--------------|--6p5h6-6--------|---------------|


  
G|---------------|---------------|--------------------------------|
D|---------------|---------------|----------------3-3---6\5--3----|
A|--5---5-5--5\--|--3---3-3--3\--|--------------5-----5--------5--|
E|---------------|---------------|--6---6-6---6-------------------|


G|-------------|----------------|---------------|
D|------5/7-5--|----------------|---------------|
A|-------------|--7-5---5-3--3--|--------3---3--|
E|--5----------|----------------|--6---6--------|


G|-----------|-------------|-------------|-----------------|
D|--3---3-3--|-------------|-------------|----3p2h3--3--2--|
A|-----------|--3-5---5-5--|----------3--|--3--------------|
E|-----------|-------------|--5-6---6----|-----------------|


G|---------------|---------------|--.------------|---------------|
D|---------------|---------------|--3-.----3--2--|---------------|
A|--5---5-5------|--------3---3--|----3----------|--5---5-5------|
E|------------5--|--6---6--------|------1--------|------------5--|


G|----------5--|-----------|-------------|------3-------5--|
D|----8--------|--3---3-3--|-------------|-----------------|
A|--------3----|-----------|--3-5---5-5--|--0-1-----1/3----|
E|--6----------|-----------|-------------|-----------------|


G|-----------|-------------|------3-------5------|
D|--3---3-3--|-------------|---------------------|
A|-----------|--3-5---5-5--|--0-1-----1/3-----3--|
E|-----------|-------------|---------------------|


G|--------------|--------------|----3-------5------|
D|------3-3--2--|--------------|-------------------|
A|--------------|--5---5-5--3--|--1-----1/3-----3--|
E|--1-----------|--------------|-------------------|


G|--------------|-------------------|--------------------|
D|--3---3-3--2--|-------------------|----8-------10------|
A|--------------|--5---5-5/10-------|--------------------|
E|--------------|-------------10\5--|--6-----6/8------8--|


G|------------------|---------------|----3-------5------|
D|------------------|---------------|-------------------|
A|--8---8-8--7h8p7--|--5---5-5---3--|--1-----1/3-----3--|
E|------------------|---------------|-------------------|


   [outro] (fade out)                                      
G|--------------|--------------|------3-------5------|
D|--3---3-3--2--|--------------|---------------------|
A|--------------|--5---5-5--3--|--0-1-----1/3-----3--|
E|--------------|--------------|---------------------|



****************

/ : slide up
\ : slide down
h : hammer on
p : pull off
x : dead note
. : staccato

****************

in regular sequence !

Suggest correction
Creating personal tab
Creating personal tab
You can edit any tab online and save it as your Personal.

You can edit, replace or remove any tab part or add personal notes – all changes will be seen only by you.

Personal tabs can be accessed anytime from any device, even offline.
Learn more »
Give kudos to tab author, rate the tab!
1 2 3 4 5
comments
print report bad tab
guest
You may want to rate the tab now too:
select rating
Wanna post a correction for this tab? Suggest correction