Oops, an error
Loading. Please wait.

Your Song Bass Tab

version 1
version 1

Whole song

Interactive

21,493 views 48 this week
1 commentread comment
1 2 3 4 5
x 5
add to favorites
launch autoscroll
font size
0
reset
guitar tuner
×
Best way to learn
"Your Song"
Autoscroll
slow
fast
+/-
esc
set tempo
stop
Your Song.btab
Elton John
TablEdited by Poppamies
Tuning : E A D G        Time Signature: 4/4

[Intro]
G|--------------------------------|--------------------------------|
D|--------------------------------|--------------------------------|
A|6-------------------------------|6-------------------------------|
E|--------------------------------|--------------------------------|
      
G|--------------------------------|--------------------------------|
D|--------------------------------|--------------------------------|
A|6-------------------------------|6-------------------------------|
E|--------------------------------|--------------------------------|

           It's a little bit        funny...    
G|--------------------------------|--------------------------------|
D|--------------------------------|6-------------------------------|
A|6-------------------------------|--------------------------------|
E|--------------------------------|--------------------------------|
     
G|--------------------------------|--------------------------------|
D|--------------------------------|5-------------------------------|
A|5-------------------5---5---5---|--------------------------------|
E|--------------------------------|--------------------------------|
 
G|------------------------5---7---|--------------------------------|
D|--------------------5-----------|--------------------------------|
A|--------------------------------|--------------------------------|
E|8-------------------------------|6-------------------------------|
   
G|--------------------------------|--------------------------------|
D|7-----------------------7-------|6-------------------------------|
A|--------------------------------|--------------------------------|
E|--------------------------------|--------------------------------|

       don't have much         money, but....    
G|--------------------------------|--------------------------------|
D|--------------------------------|------------------------8-------|
A|--------------------------------|--------------------8-----------|
E|6-----------------------6-------|6-------------------------------|
  
G|--------------------------------|--------------------------------|
D|--------------------------------|--------------------------------|
A|--------------------------------|3-------------------------------|
E|7-------------------7---3-------|--------------------------------|
   
G|--------------------------------|--------------------------------|
D|--------------------------------|--------------------------------|
A|6-----------------------6-------|8-----------------------8-------|
E|--------------------------------|--------------------------------|
  
G|--------------------------------|--------------------------------|
D|6-------------------------------|8-------------------------------|
A|--------------------------------|--------------------------------|
E|--------------------------------|--------------------------------|

                                                     If I wasa       
G|--------------------------------|--------------------------------|
D|8-----------------------8-------|--------------------------------|
A|--------------------------------|6-----------------------6-------|
E|--------------------------------|--------------------------------|

  sculptor...    
G|--------------------------------|--------------------------------|
D|6-----------------------6-------|--------------------------------|
A|--------------------------------|5-----------------------5-------|
E|--------------------------------|--------------------------------|
    
G|--------------------------------|--------------------------------|
D|5---------------5---------------|--------------------------------|
A|------------5-----------5-------|--------------------------------|
E|--------------------------------|8-------------------8-----------|
    
G|--------------------------------|--------------------------------|
D|--------------------------------|--------------------------------|
A|--------------------------------|--------------------------------|
E|6-------------------6-----------|5-------------------5-----------|

                                                  I know it's not  
G|--------------------------------|--------------------------------|
D|--------------------------------|--------------------------------|
A|--------------------------------|1-------------------------------|
E|4-------------------4-----------|--------------------------------|

  much...      
G|--------------------------------|--------------------------------|
D|--------------------------------|------------------------5-------|
A|1-----------------------1-------|2-------------------------------|
E|--------------------1-----------|--------------------------------|
    
G|--------------------------------|--------------------------------|
D|--------------------------------|--------------------8-----------|
A|3-------------------------------|6-----------------------6-------|
E|--------------------------------|--------------------------------|
      
G|--------------------------------|--------------------------------|
D|--------------------------------|6-------------------------------|
A|8-------------------------------|--------------------------------|
E|--------------------------------|--------------------------------|
     
G|--------------------------------|--------------------------------|
D|--------------------------------|----------------5---------------|
A|6-----------6-------6---6-------|6-----------6-----------6-------|
E|--------------------------------|--------------------------------|

              And you can tell|        everybody...     
G|--------------------------------|--------------------------------|
D|--------------------------------|--------------------------------|
A|5-----------------------5-------|--------------------------------|
E|--------------------------------|8-------------------------------|
    
G|--------------------------------|--------------------------------|
D|--------------------------------|6-----------------------6-------|
A|8---------------8-------8-------|--------------------------------|
E|--------------------------------|--------------------------------|
   
G|--------------------------------|--------------------------------|
D|--------------------------------|--------------------------------|
A|5-------------------------------|--------------------------------|
E|--------------------------------|8-----------------------8-------|
    
G|--------------------------------|--------------------------------|
D|------------------------5-------|6-------------------------------|
A|8-------------------------------|--------------------------------|
E|--------------------------------|--------------------------------|

  I hope you don't|mind ... 
G|--------------------------------|--------------------------------|
D|--------------------------------|--------------------------------|
A|--------------------------------|--------------------------------|
E|8-----------------------8-------|6-----------------------6-------|
     
G|--------------------------------|--------------------------------|
D|--------------------------------|6-------------------------------|
A|--------------------------------|--------------------------------|
E|5-----------------------5-------|--------------------------------|

                          How      wonderful...  
G|--------------------------------|--------------------------------|
D|--------------------------------|5-------------------------------|
A|--------------------------------|--------------------------------|
E|--------------------------------|--------------------------------|
    
G|--------------------------------|--------------------------------|
D|6-------------------------------|6-------------------------------|
A|--------------------------------|--------------------------------|
E|--------------------------------|--------------------------------|
   
G|--------------------------------|--------------------------------|
D|--------------------------------|--------------------------------|
A|--------------------------------|--------------------------------|
E|6-------------------------------|6-------------------------------|

[Intro]       
G|--------------------------------|--------------------------------|
D|--------------------------------|--------------------------------|
A|6-------------------------------|6-------------------------------|
E|--------------------------------|--------------------------------|
     
G|--------------------------------|--------------------------------|
D|--------------------------------|--------------------------------|
A|6-------------------------------|6-------------------------------|
E|--------------------------------|--------------------------------|

         I sat on  the            roof...      
G|--------------------------------|--------------------------------|
D|--------------------------------|6-----------------------6-------|
A|6-------------------------------|--------------------------------|
E|--------------------------------|--------------------------------|
  
G|--------------------------------|--------------------------------|
D|--------------------------------|5-----------5---5-----------5---|
A|5-------------------------------|--------------------------------|
E|--------------------------------|--------------------------------|
  
G|--------------------------------|--------------------------------|
D|--------------------------------|--------------------------------|
A|--------------------------------|--------------------------------|
E|8-------------------------------|6-------------------------------|
     
G|--------------------------------|--------------------------------|
D|--------------------------------|--------------------------------|
A|--------------------------------|--------------------------------|
E|5-------------------------------|4---4-----------4---------------|
        
G|--------------------------------|--------------------------------|
D|--------------------------------|--------------------------------|
A|--------------------------------|----------------8---------------|
E|6---------------6-----------6---|6---6---6-----------6-------6---|
     
G|--------------------------------|--------------------------------|
D|----------------------------5---|--------------------------------|
A|--------------------------------|--------------------------------|
E|7---------------7---------------|8---8---8-------8---8---8-------|
     
G|--------------------------------|--------------------------------|
D|--------------------------------|--------   and so on   ---------|
A|6-----------------------6-------|--------------------------------|
E|--------------------------------|--------------------------------|
Suggest correction
comments
print report bad tab
1 comment total.
0 reply
GN'R Dude 127 Jun 27, 2008 02:01 PM

Excellent job sir!

guest
You may want to rate the tab now too:
select rating
Wanna post a correction for this tab? Suggest correction