Oops, an error
Loading. Please wait.

Your Starter For Bass Tab

28 views 1 this week
no commentswrite comment
1 2 3 4 5
3 more votes to show rating
add to favorites
launch autoscroll
font size
0
reset
guitar tuner
Autoscroll
slow
fast
+/-
esc
set tempo
stop
Help us to improve Ultimate-Guitar.com Take our survey!
×
Author
Difficulty
novice
[Verse 1]
G|----------------|--------4)-5---4--|--------------------------------------| (x2)
D|----------------|--5--(7-----------|--7--7--7--7--5-----------------------|
A|--------4)-5----|------------------|-----------------8--7--5--7--8---8----|
E|--5--(7---------|------------------|--------------------------------------|

G|-------------|-------------|-----------------|-------------|
D|-------------|-------------|-----------------|-------------|
A|--5--5--5----|-------------|-----------------|-------------|
E|-------------|--0--2--4----|--5--5--5--5---5-|-4---4-5--3--|

G|-------------|--------------|----------|------------------------|-------------|
D|------3-5----|--------------|----------|------------------------|--5h7---7----|
A|--5----------|--3--2--0-----|----------|------------------------|-------------|
E|-------------|-----------3--|--1----0--|--5---5---5---5---5--5--|-------------|

[Verse 2]
G|----------------|--------4)-5---4--|--------------------------------------| (x2)
D|----------------|--5--(7-----------|--7--7--7--7--5-----------------------|
A|--------4)-5----|------------------|-----------------8--7--5--7--8---8----|
E|--5--(7---------|------------------|--------------------------------------|

G|-------------|-------------|-------------------|---------------|
D|-------------|-------------|-------------------|---------------|
A|--5--5--5----|-------------|-------------------|---------------|
E|-------------|--0--2--4----|--5--5--5--5--5--5-|-4--4--4-5--3--|

                                                                         [Outro]
G|-------------|--------------|----------------|-----------------------|----------------12h14--|
D|------3-5----|--------------|----------------|-----------------------|--5h7---7---7----------|
A|--5----------|--3--2--0-----|----------------|-----------------------|-----------------------|
E|-------------|-----------3--|--1---1-0--0--0-|-5---5---5---5---5--5--|-----------------------|


***************************

| h : hammer-on
| ( ) : fast

***************************

in regular sequence!
Suggest correction
Give kudos to tab author, rate the tab!
1 2 3 4 5
comments
print report bad tab
guest
You may want to rate the tab now too:
select rating
Wanna post a correction for this tab? Suggest correction