Oops, an error
Loading. Please wait.

Petalstorm Tab

607 views 1 this week
no commentswrite comment
1 2 3 4 5
2 more votes to show rating
add to favorites
launch autoscroll
font size
0
reset
how to read this tab
guitar tuner
×
Best way to learn
"Petalstorm"
Autoscroll
slow
fast
+/-
esc
set tempo
stop
Difficulty
Tuning
intermediate
D A D G B E
[Riff 1]
E|---------------------------------|
B|--10-7--9-5--10-7-9-12-14-12-10--|
G|------6--------------------------|
D|---------------------------------|
A|---------------------------------|
D|---------------------------------|

[Riff 2]
E|---------------------------------|
B|--10-7---9-5--14-14-14-12-12-12--|
G|-------6-------------------------|
D|---------------------------------|
A|---------------------------------|
D|---------------------------------|

E|--------------------------------------------------|
B|--------------------------------------------------|
G|--7-7-7-7-7-7-7-11-9-9p7p6--------------7-9-11-9--|
D|---------------------------7-7-7-7-7-7--5-7-9--7--|
A|--------------------------------------------------|
D|--------------------------------------------------|

E|-----------------------------------------|
B|-----------------------------------------|
G|--7-0-0-0-0-0-0-0-10^--14-14-14-12-11-9--|
D|-----------------------------------------|
A|-----------------------------------------|
D|-----------------------------------------|

E|-------------------17b--17-21-19------------|
B|--------------------------------------------|
G|--14b-16b-18b-19b----------------16-14-11b--|
D|--------------------------------------------|
A|--------------------------------------------|
D|--------------------------------------------|



************************************

| p  Pull-off
| b  Bend

************************************
Suggest correction
Give kudos to tab author, rate the tab!
1 2 3 4 5
comments
print report bad tab
guest
You may want to rate the tab now too:
select rating
Wanna post a correction for this tab? Suggest correction