Oops, an error
Loading. Please wait.

Fooled Around And Fell In Love Tab

version 1
version 1

Whole song

Interactive

37,393 views 63 this week
1 commentread comment
1 2 3 4 5
accurate
x 2
add to favorites
launch autoscroll
font size
0
reset
how to read this tab
guitar tuner
Tab Pro tools
  • play this tab
  • loop segment
  • change instrument
  • show fretboard
  • metronome
Autoscroll
slow
fast
+/-
esc
set tempo
stop
Contributor
Difficulty
intermediate
----------------------------------------------------------
     Fooled Around And Fell In Love   Elvin Bishop
----------------------------------------------------------

Tabbed by: Vettes n Frets
Email:

Tuning: std



     Verse and Chorus  Chords

      F      A        Eb       Bb

e|----5------5--------3--------10-----|
B|----6------5--------4--------11-----|
G|----5---------------3--------10-----|
D|------------------------------------| 
A|------------------------------------|
E|------------------------------------|


I must have been through about a million girls                         
I'd love 'em and I'd leave 'em alon
I didn't care how much they cried, no sir
Their tears left me cold as a stone

But then I fooled around and fell in love
I fooled around and fell in love
Since I met you baby
I fooled around and fell in love
I fooled around and fell in love



 Pre-solo intro chords

   C Bb
   G Bb C
   G Bb C

         Guitar  Solo

e|-----------------------------|
B|-----------------------------|
G|-----------------------------|
D|---------3---5--5/---7-------|
A|---3--5----------------------|
E|-----------------------------|

e|-----------------------------|
B|-----------------------------|
G|--5--7--5--7b-7b--5--7--9----|
D|-----------------------------|
A|-----------------------------|
E|-----------------------------|

e|-----------------------------|
B|-----------------------------|
G|--5--7--5--7h-/-8--7--5------|
D|-----------------------------|
A|-----------------------------|
E|-----------------------------|

e|-----------------------------|
B|-----------------------------|
G|-----------------------------|
D|--5--7--5--7--5-\--3---------|
A|-----------------------------|
E|-----------------------------|

e|-----------------------------|
B|-----------------------------|
G|-----------------------------|
D|--------3--------------------|
A|--3--5-----5--3--------------|
E|-----------------------------|


e|-/----5---5---5---5---5---5---5---5------|
B|-x---------------------------------------|
G|-/--5---5---5---5---5---5---5---5--------|
D|-----------------------------------------|
A|-----------------------------------------|
E|-----------------------------------------|

e|-/---8---8---5---5-----|
B|-----x---x---x---x-----|
G|-/---8---8---5---5-----|
D|-----------------------|
A|-----------------------|
E|-----------------------|

e|-/----3---3---3---3---3---3----|
B|-x-----------------------------|
G|-/--3---3---3---3---3---3------|
D|-------------------------------|
A|-------------------------------|
E|-------------------------------|

e|------------------------------------------------|
B|------6------\-----4-----\-----1----------------|
G|---7----7----\--5----5---\--3-----3---1---0-----|
D|---------------------------------------------3--|
A|------------------------------------------------|
E|------------------------------------------------|


Free, on my own that's the way I used to be
Ah, but since I met you baby
Love's got a hold on me
It's got a hold on me now
I can't let go of you baby

I can't stop lovin' you now
'Cause I fooled around, fooled around, fooled around
Fooled around, fooled around, fooled around, fell in love

Fooled around, fooled around, yes I did
Fooled around, fooled around, fooled around
I fell in love, yes I did



| /  slide up
| \  slide down
| h  hammer-on
| x  Mute note
=========================================================
comments
We did not receive enough feedback on this tab! Please rate:
print report bad tab
1 2 3 4 5
1 comment total.
0 reply
lovMYguitar wrote on July 31 2013, 07:33 am

Very Nice. I've Always Liked This Song.

I want to post or [tab]
guest
You may want to rate the tab now too:
select rating
Please do not post tabs as comments. Select "correction" instead!