Oops, an error
Loading. Please wait.

Sure Feels Good Tab

1,534 views 15 this week
no commentswrite comment
1 2 3 4 5
please rate
add to favorites
launch autoscroll
font size
0
reset
how to read this tab
guitar tuner
Tab Pro tools
  • play this tab
  • loop segment
  • change instrument
  • show fretboard
  • metronome
Autoscroll
slow
fast
+/-
esc
set tempo
stop
-------------------------------------------------------------------------------
        SURE FELLS GOOD by ELVIN BISHOP
-------------------------------------------------------------------------------
Tabbed by:Donald.D
Email:

Tuning:Standard. 4,4 time 

 Intro
e|--2-0----------------------------------------------------------------------|
B|---------2--2--0---------------222-----------------------------------------|
G|------2-----------2---------2------2---------------------------------------|
D|---------------------2--4-------------4---2--------------------------------|
A|----------------------------------------------4---2---0--------------------|
E|---------------------------------------------------------------------------|


 |------A----------------E------------------D--------------------------------|
      1.I've   nev - er  seen     such   a  beau-ti-ful  day,
      2.The  sun  just   came  out from be- hind   the   cloud
      3.nine  pair  of   shoes  walk-in     this    ol'  floor

   
 |-D------------------------E-----D----------A-------------------------------|
 |           looks    like  every-thing  is  com-in' my  way.
 |           now    I       feel  like       shout-in  out loud
 | nev - er  sang         nothing but  the   blues


 |--A----------------------E------------------A------------------------------|
 |        feel   lik   a   bird   just        leav-in   a    cage, 
 |        hal  -  le  -    lu  -jah let the   sun - shine    in
 |        now  I'm         sing - in  me  a   brand  new     song

 |--Bm----------Cm------------Bm-------------------------Cm----------A-------|
 |  Sure feels  good feelin   good a - gain, sure  feels good feelin good.
 |
 |--Bm---Cm----------Bm---------------E--F#--G--G#--A------------------------|
 |           Feels   good  a - gain------------------------------------------|

 |2.-A--E--D----D--E--D--A---------------------------------------------------|
 |-----------------------3. I   wore   out        ---------------------------|
 |---------------------------------------------------------------------------|
 |-A--------------------Bm7-----------A-------------------D------------------|
 |Sure feels good feelin               feels  good  feelin :]
 |---------------------------------------------------------------------------|


| /  slide up
| \  slide down
| h  hammer-on
| p  pull-off
| ~  vibrato
| +  harmonic
| x  Mute note
===============================================================================
comments
We did not receive enough feedback on this tab! Please rate:
print report bad tab
1 2 3 4 5
I want to post or [tab]
guest
You may want to rate the tab now too:
select rating
Please do not post tabs as comments. Select "correction" instead!