Oops, an error
Loading. Please wait.

Miracle Man bass

version 1
version 1

Whole song

515 views 1 this week
3 commentsread comments
1 2 3 4 5
3 more votes to show rating
add to favorites
×
Save as Personal and add changes to this tab that will be seen only by you. Learn more ›
×
You can save this tab as Personal to edit and correct it or add notes. All changes will be seen only by you. Learn more »
launch autoscroll
font size
0
reset
guitar tuner
edit
Autoscroll
slow
fast
+/-
esc
set tempo
stop
-------------------------------------------------------------------------------
                             Miracle Man - Elvis Costello
-------------------------------------------------------------------------------
Tabbed by: Mike kunz
E-mail: rmj21@embarqmail.com


  Intro-guitars :
G|-----------------------------------------------------------|----------|
D|-----------------------------------------------------------|----------|
A|-----------------------------------------------------------|----------|
E|-----------------------------------------------------------|-00-22-44-|

  I can tell
G|-------------------------------------------------------------------|
D|-----------------------------------------------------------------9-|
A|-----4-7-4-------------4-7-4-4-4-2-0-----4-7-4---------------------|
E|-5-5-------0-0-2-4-5-5---------------5-5-------0-0-2-4-2-22-2-22---|

  Why you have to say
G|----------------------------------------------------------------------|
D|----------------------------------------------------------------------|
A|-77777--54------------7-5-4------------7-5-4---------2---------222222-|
E|-----------0-0-2-4-55-------0-0-2-4-55-------0-0-2-4------------------|


  Baby has to have the things she wants
G|---------------------------------------------------------------------|----------|
D|---------------------------------------------------------------------|----------|
A|-------------4-42-0-------------4-42-0-------------4-42-0------------|----------|
E|-0-0-2-2-4-4--------0-0-2-2-4-4--------0-0-2-2-4-4--------0-0-2-2-00-|-00-22-44-|

  And I'm doin everything
G|-------------------------------------------------------------------|
D|-----------------------------------------------------------------9-|
A|-----4-7-4-------------4-7-4-4-4-2-0-----4-7-4---------------------|
E|-5-5-------0-0-2-4-5-5---------------5-5-------0-0-2-4-2-22-2-22---|

 Why you have to say
G|----------------------------------------------------------------------|
D|----------------------------------------------------------------------|
A|-77777--54------------7-5-4------------7-5-4---------2---------222222-|
E|-----------0-0-2-4-55-------0-0-2-4-55-------0-0-2-4------------------|

 ( short interlude )
G|-------------------------------------|
D|-------------------------------------|
A|-77777-9-7---------77777-9-7---------|
E|-----------7-5-4-0-----------7-5-4-0-|

  They been givin you a bad reputation
G|---------------------------------------------------------------------|----------|
D|---------------------------------------------------------------------|----------|
A|-------------4-42-0-------------4-42-0-------------4-42-0------------|----------|
E|-0-0-2-2-4-4--------0-0-2-2-4-4--------0-0-2-2-4-4--------0-0-2-2-00-|-00-22-44-|

  Everybody loves you so much girl
G|-------------------------------------------------------------------|
D|-----------------------------------------------------------------9-|
A|-----4-7-4-------------4-7-4-4-4-2-0-----4-7-4---------------------|
E|-5-5-------0-0-2-4-5-5---------------5-5-------0-0-2-4-2-22-2-22---|

  Why you have to say
G|----------------------------------------------------------------------|
D|----------------------------------------------------------------------|
A|-77777--54------------7-5-4------------7-5-4---------2---------222222-|
E|-----------0-0-2-4-55-------0-0-2-4-55-------0-0-2-4------------------|

  Outro- ( repeats and fades )
G|-------------------------------------------------------------------------|
D|-------------------------------------------------------------------------|
A|-77777-9-7---------77777-9-7---------77777-9-7---------77777-9-7---------|
E|-----------7-5-4-0-----------7-5-4-0-----------7-5-4-0-----------7-5-4-0-|

  A Miracle Man, A Miracle Man 
G|-------------------------------------------------------------------------|
D|-------------------------------------------------------------------------|
A|-77777-9-7---------77777-9-7---------77777-9-7---------77777-9-7---------|
E|-----------7-5-4-0-----------7-5-4-0-----------7-5-4-0-----------7-5-4-0-|

            
            
Suggest correction
Creating personal tab
Creating personal tab
You can edit any tab online and save it as your Personal.

You can edit, replace or remove any tab part or add personal notes – all changes will be seen only by you.

Personal tabs can be accessed anytime from any device, even offline.
Learn more »
Give kudos to tab author, rate the tab!
1 2 3 4 5
comments
print report bad tab
3 comments total.
0 reply
lancegentile 10 Nov 14, 2015 07:26 AM

it's a bass tab that works, but it's not what's on the record. Not even close.

+1 reply
chennessey1 32 Jun 08, 2016 06:54 PM, edited on June 10 2016, 04:32 pm

I

0 reply
Michael J. Kunz 1,423 Jun 10, 2016 02:59 AM

Cheney thanks for your feedback. Before you post any type of comments on other tabs, please get a little more specific and detailed in your thoughts. Comments are typically designed on here to help the other members. Also, it would help for you to learn some proper etiquette, and perhaps even grow up a little bit before posting your toxic words.

guest
You may want to rate the tab now too:
select rating
Wanna post a correction for this tab? Suggest correction