Oops, an error
Loading. Please wait.

This Years Girl bass

version 1
version 1

Whole song

Interactive

70 views 1 this week
no commentswrite comment
1 2 3 4 5
3 more votes to show rating
add to favorites
×
Save as Personal and add changes to this tab that will be seen only by you. Learn more ›
×
You can save this tab as Personal to edit and correct it or add notes. All changes will be seen only by you. Learn more »
launch autoscroll
font size
0
reset
guitar tuner
edit
Autoscroll
slow
fast
+/-
esc
set tempo
stop
Title: This Year's Girl
Artist: Elvis Costello
Tabber: electricbunny
Electric Bass



[Intro]
G |-------|-------|-------|-------|-------|
D |--0/---|--12---|-------|-------|-------|
A |-------|-------|-------|-------|-------|
E |-------|-------|-------|-------|-------|


G|--14-------16-------18----19----------18------------|
D|----------------------------------------------------|
A|----------------------------------------------------|
E|----------------------------------------------------|


G|----------------------------|--2--1----------|--0-------------|
D|----------------------------|--------4--2----|-----4--2--0----|
A|----------------------------|----------------|----------------|
E|----------------------------|----------------|----------------|

G|-------|----------------------------|
D|--2----|-----------------------0----| 
A|-------|-----------------0--3-------| 
E|-------|----------------------------| 

[Verse]

G|--------------2-------------|
D|--0-----4--0-----0--4--0----|
A|----------------------------|
E|----------------------------|

G|----------------------------------------------------|
D|--------------------------4-----4-----2-------------|
A|--2-----------------2-----------------------2-------|
E|----------------------------------------------------|


G|----------------------------|
D|--------------2--------2----|
A|--0-----4--0-----0--4-------|
E|----------------------------|


G|----------------------------------------------------|
D|--------------------------2-----------------2-------|
A|--0-----------4-----0-----------0-----4-------------|
E|----------------------------------------------------|


G|--------------2-------------|----------------------------|
D|--0-----4-----------4--0----|--------------4-----2-------|
A|----------------------------|--2--------2-----2-----2----|
E|----------------------------|----------------------------|


G|----------------------------|-----------2----------------|
D|----------------------------|--------------4--2----------|
A|--------------4--2--0--2----|-----2--4-----------4--2----|
E|--2-----5--2----------------|--2-------------------------|

[Chorus]
G|----------------------------------------------------|
D|--------------------------0-----------------0-------|
A|--------------2-----------------------2-------------|
E|--3-----3-----------3-----------3-------------------|


G|----------------------------|
D|--------------2-------------|
A|--0-----4--0-----0-----0----|
E|----------------------------|


G|----------------------------------------------------|
D|--------------------------0-----------------0-------|
A|--------------2-----------------------2-------------|
E|--3-----------------------------3-------------------|


G|----------------------------|
D|--------------2--------2----|
A|--0-----4--0-----0--4-------|
E|----------------------------|


G|----------------------------------------------------|
D|--------------------------0-----------------0-------|
A|--------------2-----------------------2-------------|
E|--3-----------------3-----------3-------------------|


G|----------------------------|--------------2--------2----|
D|--------------2--------2----|--0-----4--0-----0--4-------|
A|--0-----4--0-----0--4-------|----------------------------|
E|----------------------------|----------------------------|


G|--------------0--0--2--2----|--2--1----------|--0-------------|-------|
D|--0--0--4--4----------------|--------4--2----|-----4--2--0----|--2----|
A|----------------------------|----------------|----------------|-------|
E|----------------------------|----------------|----------------|-------|

                             [Verse]
G|----------------------------|--------------2-------------|
D|--------------2--------0----|--0-----4--0-----0--4--0----|
A|-----------------0--3-------|----------------------------|
E|----------------------------|----------------------------|


G|----------------------------------------------------|
D|--------------------------4-----4-----2-------------|
A|--2-----------------2-----------------------2-------|
E|----------------------------------------------------|


G|----------------------------------------------------|
D|--------------------------2-----------------2-------|
A|--0-----------2-----0-----------0-----2-------------|
E|----------------------------------------------------|


G|----------------------------------------------------|
D|--------------------------2-----------------2-------|
A|--0-----------2-----0-----------0--0--2-------------|
E|----------------------------------------------------|


G|--------------2--------2----|----------------------------|
D|--0-----4-----------4-------|--------------4-----2-------|
A|----------------------------|--2--------2-----2-----2----|
E|----------------------------|----------------------------|


G|----------------------------|-----------2----------------|
D|----------------------------|--------------4--2----------|
A|--------0-----4-----0--2----|-----2--4-----------4--2----|
E|--2--------2-----0----------|--2-------------------------|

[Chorus]
G|----------------------------------------------------|
D|--------------------------0-----------------0-------|
A|--------------2-----------------------2-------------|
E|--3-----3-----------3-----------3-------------------|


G|----------------------------|
D|--------------2-------------|
A|--0-----4--0-----0-----0----|
E|----------------------------|


G|----------------------------------------------------|
D|--------------------------0-----------------0-------|
A|--------------2-----------------------2-------------|
E|--3-----------------------------3-------------------|


G|----------------------------|
D|--------------2--------2----|
A|--0-----4--0-----0--4-------|
E|----------------------------|


G|----------------------------------------------------|
D|--------------------------0-----------------0-------|
A|--------------2-----------------------2-------------|
E|--3-----------------3-----------3-------------------|


G|----------------------------|--------------2--------2----|
D|--------------2--------2----|--0-----4--0-----0--4-------|
A|--0-----4--0-----0--4-------|----------------------------|
E|----------------------------|----------------------------|

                             [Bridge]
G|--------------0--0--2--2----|----------------------------|
D|--0--0--4--4----------------|----------------------------|
A|----------------------------|--2-----2-----2-------------|
E|----------------------------|-----------2-----2--4--2----|


G|----------------------------|----------------------------|
D|----------------------------|-----------------------0----|
A|--2-----2-----2-------------|--------2-----2--3--4-------|
E|-----------2-----2--4--2----|--3--------3----------------|


G|----------------------------------------------------|
D|--------------------------------------0-------------|
A|--------------------------------2-----------2-------|
E|--------------2--------3--4-------------------------|


G|----------------------------|----------------------------|--2--1----------|
D|--2--------2--------2--2----|--2-----2-----2-----2-------|--------4--2----|
A|----------------------------|----------------------------|----------------|
E|----------------------------|----------------------------|----------------|


G|--0-------------|-------|----------------------------|
D|-----4--2--0----|--2----|--------------2--------0----|
A|----------------|-------|-----------------0--3-------|
E|----------------|-------|----------------------------|

[Verse]
G|--------------2-------------|
D|--0-----4--0-----0--4--0----|
A|----------------------------|
E|----------------------------|


G|----------------------------------------------------|
D|--------------------------4-----4-----2-------------|
A|--2-----------------2-----------------------2-------|
E|----------------------------------------------------|


G|----------------------------|
D|--------------2--------2----|
A|--0-----2--0-----0--2-------|
E|----------------------------|


G|----------------------------------------------------|
D|--------------------------2-----------------2-------|
A|--0-----------2-----0-----------0-----2-------------|
E|----------------------------------------------------|


G|--------------2--------2----|----------------------------|
D|--0-----4-----------4-------|--------------4-----2-------|
A|----------------------------|--2--------2-----2-----2----|
E|----------------------------|----------------------------|


G|----------------------------|-----------2----------------|
D|----------------------------|--------------4--2----------|
A|--------0-----4-----0--2----|-----2--4-----------4--2----|
E|--2--------2-----0----------|--2-------------------------|

[Chorus]
G|----------------------------|----------------------------|
D|--------------0--------0----|--------------2-------------|
A|--------2-----------2-------|--0-----4--0-----0-----0----|
E|--3--3-----3-----3----------|----------------------------|


G|----------------------------|----------------------------|
D|--------------0--------0----|--------------2--------2----|
A|--------2-----------2-------|--0-----4--0-----0--4-------|
E|--3--------------3----------|----------------------------|


G|----------------------------|----------------------------|
D|--------------0--------0----|--------------2--------2----|
A|--------2-----------2-------|--0-----4--0-----0--4-------|
E|--3--------3-----3----------|----------------------------|


G|----------------------------|----------------------------|
D|--------------0--------0----|--------------2--------2----|
A|--------2-----------2-------|--0-----4--0-----0--4-------|
E|--3--------------3----------|----------------------------|


G|----------------------------|----------------------------|
D|--------------0--------0----|--------------2--------2----|
A|--------2-----------2-------|--0-----4--0-----0--4-------|
E|--3--------3-----3----------|----------------------------|


G|--------------2--------2----|----------------------------|
D|--0-----4--0-----0--4-------|--------0-----4--4--0--4----|
A|----------------------------|--2--------2----------------|
E|----------------------------|----------------------------|


G|----------------------------|----------------------------|
D|--------------0--------0----|--------------2--------2----|
A|--------2-----------2-------|--0-----4--0-----0--4-------|
E|--3--------------3----------|----------------------------|


G|--------------2--------2----|----------------------------|
D|--0-----4--0-----0--4-------|--------0-----4--4--0--4----|
A|----------------------------|--2--------2----------------|
E|----------------------------|----------------------------|


G|----------------------------|----------------------------|
D|--------------0--------0----|--------------2--------2----|
A|--------2-----------2-------|--0-----4--0-----0--4-------|
E|--3--------3-----3----------|----------------------------|

[Outro]
G|--2--1----------|--0-------------|-------|----------------------------|
D|--------4--2----|-----4--2--0----|---2---|--------------2--------0----|
A|----------------|----------------|-------|-----------------0--3-------|
E|----------------|----------------|-------|----------------------------|


G|----------------------------------------------------|
D|--0--2--------0--2----------------------------------|
A|----------------------------------------------------|
E|----------------------------------------------------|


G|--------------1--4--------6--------9--------6-------|
D|--2-----4-------------------------------------------|
A|----------------------------------------------------|
E|----------------------------------------------------|


G|--9--11----9--11----9--11----9--------11----14------|
D|----------------------------------------------------|
A|----------------------------------------------------|
E|----------------------------------------------------|


G|--14-13-14-13-14-13----14---|--16----14-13-14------------|-------|----||
D|----------------------------|-----------------14---------|-------|----||
A|----------------------------|----------------------------|-------|----||
E|----------------------------|----------------------------|-------|----||

Legend

/ - slide


            
            
Suggest correction
Creating personal tab
Creating personal tab
You can edit any tab online and save it as your Personal.

You can edit, replace or remove any tab part or add personal notes – all changes will be seen only by you.

Personal tabs can be accessed anytime from any device, even offline.
Learn more »
Give kudos to tab author, rate the tab!
1 2 3 4 5
comments
print report bad tab
guest
You may want to rate the tab now too:
select rating
Wanna post a correction for this tab? Suggest correction