Oops, an error
Loading. Please wait.

Boy With A Problem Bass Tab

16 views 1 this week
no commentswrite comment
1 2 3 4 5
2 more votes to show rating
add to favorites
launch autoscroll
font size
0
reset
guitar tuner
Autoscroll
slow
fast
+/-
esc
set tempo
stop
Help us to improve Ultimate-Guitar.com Take our survey!
×
Author
Difficulty
novice
Bass Start - 00:04


[Verse 1]

G|----------------|----------------|----------------|
D|----------------|----------------|----------------|
A|--3-------------|-------1--------|----------------|
E|----------------|--1-------------|----------------|


G|----------------|----------------|----------------|
D|----------------|----------------|----------------|
A|--5-------------|--6----3--------|----------------|
E|----------------|----------------|----------------|


G|--------------|-------------|-------------|----------------|
D|--------------|-------------|-------------|----------------|
A|--6---6-4---4-|-3---3-------|-------------|----------------|
E|--------------|-------6---6-|-4---4-6--6--|----------------|


G|---------------|---------------|---------------|---------------|---------------|---------------|
D|-------5----6--|--3----5----6--|-------5----6--|--3----5----6--|-------5----6--|-------5----6--|
A|--4------------|---------------|--4------------|---------------|--4------------|---------------|
E|---------------|---------------|---------------|---------------|---------------|--6------------|


[Chorus]

G|----------------|----------------|----------------|----------------|
D|----------------|----------------|----------------|----------------|
A|----------------|----------------|----------------|----------------|
E|--4-------------|--3----------3--|--2----------2--|--0-------------|


G|----------------|---------------|----------------|
D|----------------|--7----5----6--|--5-------------|
A|--6-------------|---------------|----------------|
E|----------------|---------------|----------------|


[Verse 2]

G|--5------16--17------\--|------------16--17------\--| 
D|------------------------|------14-------------------|
A|------------------------|--12-----------------------|
E|------------------------|---------------------------|(x2)


G|----------------|----9-----------|----10----------|----9-----------|
D|----10----------|--7---7------/--|--8----8--------|--7---7-\-------|
A|--8----8--------|----------------|----------------|----------1/10\-|
E|----------------|----------------|----------------|----------------|


G|--------------|----------------|----------------|----------------|
D|--------------|----------------|----------------|----------------|
A|--------------|----------------|-5-5------------|-3-3------------|
E|-3------3/10\-|-1--------------|----------------|----------------|


G|----------------|----------------|----------------|----------------|----------------|----------------|
D|----------------|----------------|----------------|----------------|----------------|----------------|
A|-2-2------------|----------------|----------------|----------------|----------------|----------------|
E|----------------|--5-------------|--3-------------|----------------|----------------|----------------|


[Outro]

G|----------------|----------------|----------------|
D|----------------|----------------|----------------|
A|--3-------------|-------1--------|----------------|
E|----------------|--1-------------|----------------|


G|----------------|----------------|----------------|
D|----------------|----------------|----------------|
A|--5-------------|--6----3--------|----------------|
E|----------------|----------------|----------------|


G|--------------|-------------|-------------|
D|--------------|-------------|-------------|
A|--6---6-4---4-|-3---3-------|-------------|
E|--------------|-------6---6-|-4---4-6--6--|



**************************

| /  slide up
| \  slide down

**************************

in regular sequence!
Suggest correction
Give kudos to tab author, rate the tab!
1 2 3 4 5
comments
print report bad tab
guest
You may want to rate the tab now too:
select rating
Wanna post a correction for this tab? Suggest correction