Oops, an error
Loading. Please wait.

Busy Bodies Bass Tab

43 views 1 this week
no commentswrite comment
1 2 3 4 5
3 more votes to show rating
add to favorites
launch autoscroll
font size
0
reset
guitar tuner
Autoscroll
slow
fast
+/-
esc
set tempo
stop
Help us to improve Ultimate-Guitar.com Take our survey!
×
Author
Difficulty
novice
[Verse 1]

G|----------------|----------------|---------------|---------------|
D|----------------|----------------|-4-4--4-4-4--4-|-5-5--5-5-5--5-|
A|--5-5--5-5-5--5-|-4-4--4-4-4-5-7-|---------------|---------------|
E|----------------|----------------|---------------|---------------|


G|---------------|----------------|----------------|----------------|
D|---------------|----------------|----------------|----------------|
A|-5-5--5-5-5--5-|-4-4--4-4-4-0---|----------------|------------0-2-|
E|---------------|--------------2-|-2-2--2-2-2-0-2-|-3-3--3-3-3-----|


[Pre-Chorus]

G|--------|-------------|------------|---------------|-------------------------|-----------------------|
D|--------|------5-5----|------------|--7---5--4-----|----------------------2--|-----------------------|
A|-5-5----|--2-2--------|------5-5---|-----------7-5-|-5------------------2----|--5---2---0------------|
E|--------|-------------|--5-5-------|---------------|-----2---3----3-2-3------|----------------3-2-0--|


[Chorus]

G|----------------|---------------|-----------1---|-2---2-2-2-4-5-|-6---6-6-4-6-4-|-7---7-7-6-7-8-|
D|----------------|---------------|-2---2-2-4---4-|---------------|---------------|---------------|
A|--5---5-5-------|-------2-3-5-0-|---------------|---------------|---------------|---------------|
E|----------0-1-2-|-3---3---------|---------------|---------------|---------------|---------------|


G|-9---------------|-------------|----------------|----------------|---------------|
D|---7-9-6-9-------|-------------|----------2-----|----------2-----|---------------|
A|-----------7-----|-------------|------2-4---4-\-|------2-3---3-\-|------0-2-5-2--|
E|-------------9-7-|-5---5-3---3-|-2-2------------|-1-1------------|-0-0-----------|


G|------------------------------|------------------------------|
D|---------5---------5--7-------|---------5---------5--7-------|
A|---0-4-7----0-4--7------------|-----4-7----0-4--7------------|
E|------------------------5-5-5-|-5-5--------------------5-5-5-|


G|------------------------------|------------------------------|
D|---------5---------5--7-------|---------5---------5--7-------|
A|-----4-7----0-4--7------------|-----4-7----0-4--7----------4-|
E|-5-5--------------------5-5-5-|-5-5--------------------5-7---|


[Verse 2]

G|-----------------|-----------------|-----------------|-----------------|
D|---------------7-|---------------7-|-4-4-x-4-4-4-x-7-|-5-5-x-5-5-7-4-7-|
A|-5-5-x-5-5-5-x---|-4-4-0-4-4-4-x---|-----------------|-----------------|
E|-----------------|-----------------|-----------------|-----------------|


G|-----------------|------------------|-----------------|-----------------|
D|---------------7-|-------------7----|-----------------|-----------------|
A|-5-5-x-5-5-5-x---|-4-4-x-4-4-4------|---------------5-|-----------------|
E|-----------------|---------------5\-|-2-2-x-2-2-2-x---|-3-3-0-3-3-0-3-3-|


[Pre-Chorus]

G|--------|-------------|------------|-----------------|-------------------------|-----------------------|
D|--------|------5-5----|------------|--7-4------------|----------------------2--|-----------------------|
A|-5-5----|--2-2--------|------5-5---|------7-0--4-7-0-|-5------------------2----|--5---2---0------------|
E|--------|-------------|--2-2-------|-----------------|-----2---3----3-2-3------|----------------3-2-0--|


[Chorus]

G|---------------|---------------|---------------|---------------|-6-6----6---4-6-|-7-7----7-7----|
D|-----------2-4-|-5-5----5-5--4-|-2-2--2-2--4-6-|-7-7----7-7--7-|------6---6-----|------7--------|
A|--5---5-5------|------5--------|---------------|------7--------|----------------|-------------7-|
E|---------------|---------------|---------------|---------------|----------------|---------------|

           
G|-(7-9----7-9)---------|-------------|----------------|----------------|---------------|
D|------9-------9--7-6\-|-------------|----------2-----|----------2-----|---------------|
A|----------------------|-0---0-------|------2-4---4-\-|------2-3---3-\-|------0-2-5-2--|
E|----------------------|-------3---3-|-2-2------------|-1-1------------|-0-0-----------|


G|------------------------------|------------------------------|
D|---------5---------5--7-------|---------5---------5--7-------|
A|---0-4-7----0-4--7------------|-----4-7----0-4--7------------|
E|------------------------5-5-5-|-5-5--------------------5-5-5-|


G|------------------------------|------------------------------|
D|---------5---------5--7-------|---------5---------5--7-------|
A|-----4-7----0-4--7------------|-----4-7----0-4--7----------4-|
E|-5-5--------------------5-5-5-|-5-5--------------------5-7---|


[Verse 3]

G|---------------|----------------|----------------|----------------|
D|---------------|----------------|-4-4--4-4-4-2-4-|-5-5--5-4-5-6-7-|
A|-5-5--5-5-5--5-|-4-4--4-4-4-5-7-|----------------|----------------|
E|---------------|----------------|----------------|----------------|


G|---------------|----------------|---------------|----------------|
D|---------------|----------------|---------------|----------------|
A|-5-5--5-5-5--5-|-4-4--4-4-2-0---|-------------5-|----------------|
E|---------------|--------------3-|-2-2--2-2-2----|-3-3--3-3-0-3-3-|


[Pre-Chorus]

G|--------|-------------|-------------------|----------------|
D|--------|------5-5----|-------------------|-------7--4-----|
A|-5-5----|--2-2--------|------5-5----------|-0-4-7------7-0-|
E|--------|-------------|--2-2----------14\-|----------------|


G|-------------------------|-----------------------|
D|----------------------2--|-----------------------|
A|-5------------------2----|--5---2---0------------|
E|-----2---3----3-2-3------|----------------3-2-0--|

[Chorus]

G|----------------|------------------|----------------|------------9-7-|-6-6--6-6---6---|-7-7----7---7-8-|
D|----------------|--------------0-1-|-2-2--2-2-2-4-5-|-7-7--7-7-7-----|----------7---7-|------7---7-----|
A|--5---5-5-------|-----2---2-/4-----|----------------|----------------|----------------|----------------|
E|----------0-1-2-|-3-3---3----------|----------------|----------------|----------------|----------------|


G|-(9-------9)---------|---------------|----------------|----------------|---------------|
D|----7-9-9----7-9-----|---------------|----------2-----|----------2-----|---------------|
A|-----------------7-\-|---------------|------2-4---4-\-|------2-3---3-\-|------0-2-5-2--|
E|---------------------|-5---5-3-3-x-3-|-2-2------------|-1-1------------|-0-0-----------|


G|------------------------------|------------------------------|
D|---------5---------5--7-------|---------5---------5--7-------|
A|---0-4-7----0-4--7------------|-----4-7----0-4--7------------|
E|------------------------5-5-5-|-5-5--------------------5-5-5-|


G|------------------------------|-----------------------------|
D|---------5---------5--7-------|---------5---------5--7------|
A|-----4-7----0-4--7------------|-----4-7----0-4--7-----------|
E|-5-5--------------------5-5-5-|-5-5---------------------5-5-|


G|-------------------------------|-------------------------------|
D|---------5-5-------5--7--7-7-7-|---------5-5-------5--7--7-7-7-|
A|-----4-7-----0-4-7-------------|-----4-7-----0-4-7-------------|
E|-5-5---------------------------|-5-5---------------------------|


G|-------------------------------|---------------------------------|
D|---------5-5-------5--7--7-7-7-|---------5-5-------5-7-7-7-5-----|
A|-----4-7-----0-4-7-------------|-----4-7-----0-4-7-----------7---|
E|-5-5---------------------------|-5-5---------------------------5-|


[Outro]
                                                                   
G|----------------|----------------|----------------|---------------------------------------|
D|----------------|--3-------------|--2-------------|--4--------/5-/6-/7-/8-/9-/10-/11-/12--|
A|-5--------------|----------------|----------------|---------------------------------------|
E|----------------|----------------|----------------|---------------------------------------|



****************************

| / : slide up
| \ : slide down
| x : dead note
| ( ) : fast

****************************

in regular sequence!
Suggest correction
Give kudos to tab author, rate the tab!
1 2 3 4 5
comments
print report bad tab
guest
You may want to rate the tab now too:
select rating
Wanna post a correction for this tab? Suggest correction