Oops, an error
Loading. Please wait.

Different Finger Bass Tab

13 views 1 this week
no commentswrite comment
1 2 3 4 5
3 more votes to show rating
add to favorites
launch autoscroll
font size
0
reset
guitar tuner
Autoscroll
slow
fast
+/-
esc
set tempo
stop
Help us to improve Ultimate-Guitar.com Take our survey!
×
Author
Difficulty
novice
[Verse 1]

G|--------------|------------|-------------|-------------|
D|--------7---7-|----4--5--6-|-7---7-------|-7---7-------|
A|--5---5-------|-5----------|-------7---7-|-------7---7-|
D|--------------|------------|-------------|-------------|


G|-------------|-------------|--------------|----------------|-------------|--------------|
D|-------------|-7---7-------|-----------4--|--7---7-x---5---|-------------|-----------4--|
A|-------7---7-|-------7---7-|-------4-7----|----------7---7-|-5---5-------|-5-5-7--8-----|
D|-5---5-------|-------------|-5---5--------|----------------|-------5---5-|--------------|


G|--------------|-------------|-------------|--------------|--------------|-------------|
D|--5---5-------|-5---5-------|-------------|-5---5--------|--------------|-------5---5-|
A|--------5---5-|-------5---5-|-------5---5-|-------8-7-5--|--3---3-------|-3---3-------|
D|--------------|-------------|-3---3-------|--------------|--------3---3-|-------------|


G|-------------|--------------|-------------|----------|--------------|-------------|
D|----------2--|--5---5-------|-5---5-------|-------3--|--------------|-------------|
A|-3-----3-----|--------5---5-|-------5---5-|----------|--3---3-------|-3---x-3--2--|
D|-----3-------|--------------|-------------|-3---3----|--------3---3-|-------------|


G|--------------|--------------|--------------|-------------|
D|--------------|-7---7-4------|--------------|----2--3--4--|
A|--------7---7-|---------7-0--|--5---5-------|-5-----------|
D|--5---5-------|--------------|--------5---5-|-------------|


G|-------------|-----------|--------------|-------------|
D|-5---5-------|-5----3----|--------------|-------------|
A|-------5---5-|-----------|--3---3-------|-3---2-3--4--|
D|-------------|-----------|--------3---3-|-------------|


G|--------------|-------------|----------------|--------|
D|--------------|----2--3--4--|--5---0-5-4-5-6-|-7------|
A|--5---5-------|-5-----------|----------------|--------|
D|--------5---5-|-------------|----------------|--------|


[Instrumental]

G|-----------------|-------------|--------------|-------------|---------------|
D|-4---------------|----4--5--6--|--7---7-------|-------------|-7---7---------|
A|---7-5---5-------|-5-----------|--------7---7-|-------7---7-|-------5h7-5h7-|
D|-----------5---5-|-------------|--------------|-5---5-------|---------------|


G|-------------|--------------|------------|-------------|-------------|
D|----------7--|--------------|----2--3--4-|-5---5-------|-5---5-------|
A|-------7-----|--5---5-------|-5----------|-------5---5-|-------7--8--|
D|-5---5-------|--------5---5-|------------|-------------|-------------|


G|--------------|-------------|--------------|-------------|-----------------|
D|--------------|----4--5--6--|--7---7-------|-------------|-----------------|
A|--5---5-------|-5-----------|--------7---7-|----------4--|--5---5----5--6--|
D|--------5---5-|-------------|--------------|-5--7--8-----|--------5--------|


[Verse 2]

G|--------------|-------------|--------------|--------------|-------------|-------------|
D|--------------|-------6--7--|--9---9-------|-9---9----6-8-|-9---9-------|-------------|
A|--7---7-------|-7---7-------|--------9---9-|-------9------|-------9---9-|-------9---9-|
D|--------7---7-|-------------|--------------|--------------|-------------|-7---7-------|


G|-----------8-|---------------|----------|--------------|
D|-9-----------|-9---9-7-6-----|----------|-----4--5--6--|
A|-----6-------|-----------9---|-7---7----|--7-----------|
D|-------7-----|-------------7-|-------7--|--------------|


G|--------------|-------------|--------------|-------------|
D|--7---7-------|-7---7-------|--------------|-------------|
A|--------7---7-|-------7-----|--7---7-------|-7---7-5--4--|
D|--------------|----------5--|--------7---7-|-------------|


[Outro]

G|--------------|-------------|-------------|----------------|
D|--------------|-9---9-------|----------9--|--7----6--4-----|
A|--------9---9-|-------9---9-|-------9-----|-------------7--|
D|--7---7-------|-------------|-7---7-------|----------------|



***************************

| h : hammer-on
| x : dead note

***************************

in regular sequence!
Suggest correction
Give kudos to tab author, rate the tab!
1 2 3 4 5
comments
print report bad tab
guest
You may want to rate the tab now too:
select rating
Wanna post a correction for this tab? Suggest correction