Oops, an error
Loading. Please wait.

The Element Within Her Bass Tab

16 views 1 this week
no commentswrite comment
1 2 3 4 5
3 more votes to show rating
add to favorites
launch autoscroll
font size
0
reset
guitar tuner
Autoscroll
slow
fast
+/-
esc
set tempo
stop
Help us to improve Ultimate-Guitar.com Take our survey!
×
Author
Difficulty
novice
[Intro]

G|--------------------|--------2-2----|---------------|---------------|
D|--3-3----3-3--------|------2--------|-2-2----2-2----|-------2---2---|
A|-------3------(3-2)-|-0-0---------3-|------2------2-|-----2---2---2-|
E|--------------------|---------------|---------------|-0-------------|


G|-------------------|--------2-2----|---------------|-----------------|
D|-3-3----3-3--------|------2--------|-2-2----2-2----|-2---2---2---0-1-|
A|------3------(3-2)-|-0-0---------3-|------2------2-|---2---2---2-----|
E|-------------------|---------------|---------------|-----------------|


[Verse 1]

G|----------------|----------------|----------------|----------------|
D|-2---1----------|----------------|----------------|----------------|
A|----------------|--4---6---------|--7---6---------|----------------|
E|----------------|----------------|----------------|--5---7---------|


G|----------------|----------------|----------------------------|
D|----------------|----------------|----------------------------|
A|--4---6---------|----------------|--------------------4--5--7-|
E|----------------|--7---5-5-------|--------------5--7----------|


[Pre-Chorus]

G|--------------|--------------|--------------|--------------|--------------|-------------|
D|------------4-|-5---5-5--5-4-|----------4-5-|-7---7-7--7-5-|-3---3-3--5-7-|-8---8-8---5-|
A|-5---5-5--7---|--------------|-7---7-7------|--------------|--------------|-------------|
E|--------------|--------------|--------------|--------------|--------------|-------------|


[Chorus]

G|--------5-5--------|---------------|---------------|-----------------|
D|------5------(5-3)-|-2-2----2-2----|---------------|-----------------|
A|-3-3---------------|------2--------|-2-2----2-2----|-2---2---2---2---|
E|-------------------|-------------3-|------2------2-|---2---2---2---2-|


[Verse 2]

G|----------------|----------------|----------------|----------------|
D|-2---1----------|----------------|----------------|----------------|
A|----------------|--4---6---------|--7---6---------|----------------|
E|----------------|----------------|----------------|--5---7---------|


G|----------------|----------------|----------------------------|
D|----------------|----------------|----------------------------|
A|--4---6---------|----------------|--------------------4--5--7-|
E|----------------|--7---5-5-------|--------------5--7----------|


[Pre-Chorus]

G|--------------|--------------|--------------|--------------|--------------|-------------|
D|------------4-|-5---5-5--5-4-|----------4-5-|-7---7-7--7-5-|-3---3-3--5-7-|-8---8-8---5-|
A|-5---5-5--7---|--------------|-7---7-7------|--------------|--------------|-------------|
E|--------------|--------------|--------------|--------------|--------------|-------------|


[Chorus]

G|-------------------|---------------|--------4-4----|---------------|
D|-------------(5-3)-|-2-2----2-2--0-|------4------4-|--------4-4--3-|
A|-3-3----3-3--------|------2--------|-2-2-----------|-2-2--2--------|
E|------3------------|---------------|---------------|---------------|


[Bridge]

G|-------------|-------------|-------------|-------------|-------------|-------------|
D|-3---3-3---3-|-2---2-2---2-|-0---0-0---0-|-------------|-0---0-0---0-|-2---2-2---2-|
A|-------------|-------------|-------------|-3---3-3---3-|-------------|-------------|
E|-------------|-------------|-------------|-------------|-------------|-------------|


G|-------------|-------------|-------------|----------------|
D|-3---3-3---3-|-2---2-2---2-|-0---0-0---0-|-5---5-----5----|
A|-------------|-------------|-------------|-------------3--|
E|-------------|-------------|-------------|-------3--------|


[Pre-Chorus]

G|---------------2---|--------------|--------------|--------------|--------------|-------------|
D|--3-3-5---5-5------|--------------|--------------|-0---0-0--0---|------------0-|-1---1-1-----|
A|-----------------2-|-3---3-3--3-2-|-0---0-0--2-3-|------------3-|-1---1-1--3---|-----------3-|
E|-------------------|--------------|--------------|--------------|--------------|-------------|


[Chorus]

G|-------------------|--------2-2----|---------------|-----------------|
D|-3-3----3-3--------|------2--------|-2-2----2-2----|-2---2---2---2---|
A|------3------(3-2)-|-0-0---------3-|------2------2-|---2---2---2---2-|
E|-------------------|---------------|---------------|-----------------|


G|-------------------|--------2-2----|---------------|-----------------|
D|-3-3----3-3--------|------2--------|-2-2-----------|-2---2---2---2---|
A|------3------(3-2)-|-0-0---------3-|------2------2-|---2---2---2---2-|
E|-------------------|---------------|--------0-0----|-----------------|


G|---------------|---------------|---------------|------------------|
D|-3-3--3-3-3--3-|-2-2--2-2-2--2-|-0-0--0-0-0--0-|-5-5--5---5--5----|
A|---------------|---------------|---------------|---------------3--|
E|---------------|---------------|---------------|--------3---------|


[Outro]

G|----------------------|--------4-4----|---------------|-----------------|
D|--3-3-5---------------|------4------0-|-4-4-----------|-4---4---2-4-0---|
A|----------5-----(5-3)-|-2-2-----------|------4------4-|---4---4-------4-|
E|------------3---------|---------------|--------2-2----|-----------------|


G|-------------------|--------4-4----|---------------|-----------------|
D|-5-5----5-5--------|------4------2-|-4-4-----------|-4---4---4---4---|
A|------5------(5-3)-|-2-2-----------|------4------4-|---4---4---4---4-|
E|-------------------|---------------|--------2-2----|-----------------|


G|-------------------|--------4-4----|---------------|-----------------|
D|--------5-5--------|------4------2-|-4-4-----------|---------4-4-----|
A|------5------(5-3)-|-2-2-----------|------4------4-|-----4-4-----4-4-|
E|-3-3---------------|---------------|--------2-2----|-2-2-------------|


G|-------------------|--------4-4-----|---------------|-----------------|
D|--------5-5--------|------4-----4---|--------4-4----|---------4-4-0---|
A|------5------(5-3)-|-2-2----------2-|------4------4-|-------4-------4-|
E|-3-3---------------|----------------|-2-2-----------|-2-0-2-----------|

                                            (fade out)
G|-------------------|--------4-4-----|---------------|
D|--------5-5--------|------4-----4---|--------4-4----|
A|------5------(5-3)-|-2-2----------2-|------4------4-|
E|-3-3---------------|----------------|-2-2-----------|



********************************

| ( ) : fast

********************************

in regular sequence!
Suggest correction
Give kudos to tab author, rate the tab!
1 2 3 4 5
comments
print report bad tab
guest
You may want to rate the tab now too:
select rating
Wanna post a correction for this tab? Suggest correction