Oops, an error
Loading. Please wait.

Hotter Sadness tab

1,243 views 21 this week
1 commentread comment
1 2 3 4 5
x 3
add to favorites
×
Save as Personal and add changes to this tab that will be seen only by you. Learn more ›
×
You can save this tab as Personal to edit and correct it or add notes. All changes will be seen only by you. Learn more »
launch autoscroll
font size
0
reset
how to read this tab
guitar tuner
edit
Autoscroll
slow
fast
+/-
esc
set tempo
stop
Standard tuning


[Intro]

   F#m   A   F#m  A
e|--------------------|
B|---2---2----2---2---|
G|----2---2----2---2--| x4
D|-----2---2-4--2---2-|
A|------0--------0----|
E|--2-----------------|


[Verse 1]

   F#m   A   F#m  A
e|--------------------|
B|---2---2----2---2---|
G|----2---2----2---2--| x2
D|-----2---2-4--2---2-|
A|------0--------0----|
E|--2-----------------|
i've been fucking up for weeks 
drinking until my angers speaks 

  F#m    E     A   D
e|------------------2-/-9-|
B|---2-----0----2---3-----|
G|----2-----1----2--2-----| 
D|-----2-----2----2-------|
A|-------------0----------|
E|--2-----0---------------|
whispering it's misery 


[Verse 2]

   F#m   A   F#m  A
e|--------------------|
B|---2---2----2---2---|
G|----2---2----2---2--| x2
D|-----2---2-4--2---2-|
A|------0--------0----|
E|--2-----------------|
fear forever try to hide 
this panicked bliss that won't subside 

  F#m    E     A   D
e|------------------2-/-9-|
B|---2-----0----2---3-----|
G|----2-----1----2--2-----|
D|-----2-----2----2-------|
A|-------------0----------|
E|--2-----0---------------|
until it rips you up inside 


[Verse 3]

   F#m   A   F#m  A
e|--------------------|
B|---2---2----2---2---|
G|----2---2----2---2--|
D|-----2---2-4--2---2-|
A|------0--------0----|
E|--2-----------------|
judgement's curse will visit soon 
to show how time reveals all wounds 

  F#m    E     A   D
e|------------------2-/-9-|
B|---2-----0----2---3-----|
G|----2-----1----2--2-----|
D|-----2-----2----2-------|
A|-------------0----------|
E|--2-----0---------------|
and knows what will become of you
Suggest correction
Creating personal tab
Creating personal tab
You can edit any tab online and save it as your Personal.

You can edit, replace or remove any tab part or add personal notes – all changes will be seen only by you.

Personal tabs can be accessed anytime from any device, even offline.
Learn more »
Give kudos to tab author, rate the tab!
1 2 3 4 5
comments
print report bad tab
1 comment total.
+1 reply
aninemusthomas 123 May 20, 2016 11:28 PM

All sounds great except I think the main little riff is
F#m A D A

e|--------------------|
B|---2---2----2---2---|
G|----2---2----2---2--|
D|-----2---2-0--2---2-|
A|------0--------0----|
E|--2-----------------|

guest
You may want to rate the tab now too:
select rating
Wanna post a correction for this tab? Suggest correction