Oops, an error
Loading. Please wait.

I Bought A Gun chords

202 views 6 this week
no commentswrite comment
1 2 3 4 5
3 more votes to show rating
add to favorites
×
Save as Personal and add changes to this tab that will be seen only by you. Learn more ›
×
You can save this tab as Personal to edit and correct it or add notes. All changes will be seen only by you. Learn more »
launch autoscroll
font size
0
reset
transpose
0
reset
simplify chords
display chords
guitar tuner
edit
Autoscroll
slow
fast
+/-
esc
set tempo
stop
Author
Difficulty
Strumming
There is no strumming pattern for this song yet. and get +5 IQ
Elvis Depressedly
I Bought A Gun
Hotter Sadness

Chord Guide:
       G          Cadd9
e|-----x------------x----------|
b|-----3------------3----------|
g|-----0------------0----------|
d|-----0------------2----------|
a|-----2------------3----------|
e|-----3-----------------------| 

[Intro]
G        Cadd9        G        Cadd9
G        Cadd9        G        Cadd9

[Verse]
G   
 I bought a gun
Cadd9                           
     The sun is rising in my head
G
 From everyone
Cadd9
     A distant future breathes me in
G
 The pills went bad
Cadd9
     I coughed it up, my hands went numb
G
 On your garage
Cadd9
     Forget, forgive, fuck everyone

[Mini Solo Outro]                                                       [optional]
e|--3--3--3--2--0--0--0h3--7~--------3--3--3--2--0--0--0h3--7~--------| |--77-777-7-------|
b|--------------------------------------------------------------------| |----------8~-----|
g|--------------------------------------------------------------------| |-----------------|
d|--------------------------------------------------------------------| |-----------------|
a|--------------------------------------------------------------------| |-----------------|
e|--------------------------------------------------------------------| |-----------------|

[Ending]
G



************************************

| x  Dead note
| h  Hammer-on
| ~  Vibrato
 

************************************

            
            
Suggest correction
Creating personal tab
Creating personal tab
You can edit any tab online and save it as your Personal.

You can edit, replace or remove any tab part or add personal notes – all changes will be seen only by you.

Personal tabs can be accessed anytime from any device, even offline.
Learn more »
Give kudos to tab author, rate the tab!
1 2 3 4 5
comments
print report bad tab
guest
You may want to rate the tab now too:
select rating
Wanna post a correction for this tab? Suggest correction