Oops, an error
Loading. Please wait.

Rebellion Bass Tab

7 views 1 this week
no commentswrite comment
1 2 3 4 5
3 more votes to show rating
add to favorites
launch autoscroll
font size
0
reset
guitar tuner
Autoscroll
slow
fast
+/-
esc
set tempo
stop
Help us to improve Ultimate-Guitar.com Take our survey!
×
Author
Difficulty
[Intro]
G|--------------------------------------------------------------|
D|--------------------------------------------------------------|
A|--------------------------------------------------3-2-3-2-3-2-|
E|--------------------------------------------------------------|

G|--------------------------------------------------------------|
D|--------------------------------------------------------------|
A|------------------5-5-5-5-5-5-5-5-7-7-7-7-7-7-7-7-3-2-3-2-3-2-|
E|-3-3-3-3-3-3-3-3----------------------------------------------|


[Verse]
("It's a Rebellion...")
G|---------------------------------|---------------------------------|---------------------------------|
D|---------------------------------|---------------------------------|---------------------------------|
A|-----------------5-5-5-5-3-3-3-3-|-----------------5-5-5-5-3-3-3-3-|-----------------5-5-5-5-3-3-3-3-|
E|-3-3-3-3-3-3-3-3-----------------|-3-3-3-3-3-3-3-3-----------------|-3-3-3-3-3-3-3-3-----------------|
                          ("Oi,Oi,Oi")                      ("Oi,Oi,Oi")                       ("Oi!")

G|---------------------------------|---------------------------------|---------------------------------|
D|---------------------------------|---------------------------------|---------------------------------|
A|-----------------5-5-5-5-3-------|-----------------5-5-5-5-3-------|-----------------5-5-5-5-3-------|
E|-3-3-3-3-3-3-3-3-----------------|-3-3-3-3-3-3-3-3-----------------|-3-3-3-3-3-3-3-3-----------------|


[Main Riff]                                                    x2
G|--------------------------------------------------------------|
D|--------------------------------------------------------------|
A|------------------5-5-5-5-5-5-5-5-7-7-7-7-7-7-7-7-3-2-3-2-3-2-|
E|-3-3-3-3-3-3-3-3----------------------------------------------|


[Verse]
("It's a Rebellion...")
G|---------------------------------|---------------------------------|---------------------------------|
D|---------------------------------|---------------------------------|---------------------------------|
A|-----------------5-5-5-5-3-3-3-3-|-----------------5-5-5-5-3-3-3-3-|-----------------5-5-5-5-3-3-3-3-|
E|-3-3-3-3-3-3-3-3-----------------|-3-3-3-3-3-3-3-3-----------------|-3-3-3-3-3-3-3-3-----------------|
                          ("Oi,Oi,Oi")                      ("Oi,Oi,Oi")                       ("Oi!")

G|---------------------------------|---------------------------------|---------------------------------|
D|---------------------------------|---------------------------------|---------------------------------|
A|-----------------5-5-5-5-3-------|-----------------5-5-5-5-3-------|-----------------5-5-5-5-3-------|
E|-3-3-3-3-3-3-3-3-----------------|-3-3-3-3-3-3-3-3-----------------|-3-3-3-3-3-3-3-3-----------------|


[Main Riff]                                                    x1
G|--------------------------------------------------------------|
D|--------------------------------------------------------------|
A|------------------5-5-5-5-5-5-5-5-7-7-7-7-7-7-7-7-3-2-3-2-3-2-|
E|-3-3-3-3-3-3-3-3----------------------------------------------|


[Verse]
("It's a Rebellion...")
G|---------------------------------|---------------------------------|---------------------------------|
D|---------------------------------|---------------------------------|---------------------------------|
A|-----------------5-5-5-5-3-3-3-3-|-----------------5-5-5-5-3-3-3-3-|-----------------5-5-5-5-3-3-3-3-|
E|-3-3-3-3-3-3-3-3-----------------|-3-3-3-3-3-3-3-3-----------------|-3-3-3-3-3-3-3-3-----------------|
                          ("Oi,Oi,Oi")                      ("Oi,Oi,Oi")                       ("Oi!")

G|---------------------------------|---------------------------------|---------------------------------|
D|---------------------------------|---------------------------------|---------------------------------|
A|-----------------5-5-5-5-3-------|-----------------5-5-5-5-3-------|-----------------5-5-5-5-3-------|
E|-3-3-3-3-3-3-3-3-----------------|-3-3-3-3-3-3-3-3-----------------|-3-3-3-3-3-3-3-3-----------------|

G|---------------------------------|---------------------------------|
D|---------------------------------|---------------------------------|
A|-----------------5-5-5-5-3-------|-----------------5-5-5-5-3-------|
E|-3-3-3-3-3-3-3-3-----------------|-3-3-3-3-3-3-3-3-----------------|

[Outro]                                                        x2
G|--------------------------------------------------------------|-----------------------------|
D|--------------------------------------------------------------|-----------------------------|
A|------------------5-5-5-5-5-5-5-5-7-7-7-7-7-7-7-7-3-2-3-2-3-2-|-3-2-3-2-3----3-2-3-2-0------|
E|-3-3-3-3-3-3-3-3----------------------------------------------|------------------------3----|
Suggest correction
Give kudos to tab author, rate the tab!
1 2 3 4 5
comments
print report bad tab
guest
You may want to rate the tab now too:
select rating
Wanna post a correction for this tab? Suggest correction