Oops, an error
Loading. Please wait.

While You Were Sleeping intro tab

16,544 views 9 this week
1 commentread comment
1 2 3 4 5
x 6
add to favorites
×
Save as Personal and add changes to this tab that will be seen only by you. Learn more ›
×
You can save this tab as Personal to edit and correct it or add notes. All changes will be seen only by you. Learn more »
launch autoscroll
font size
0
reset
how to read this tab
guitar tuner
edit
Autoscroll
slow
fast
+/-
esc
set tempo
stop
----------------------------------------------------------------------------
                 While You Were Sleeping (intro) - Elvis Perkins
----------------------------------------------------------------------------
Tabbed by: Ollycowan
Email: cowano@hotmail.com

Tuning: standard
CAPO on 3

e|--3-----0-----------------------0-0-0--3-3--0--0-0-0--3-3--0--etc-------|
B|-----3-----1-----1-----------1--1-1-1--0-0--1--1-1-1--0-0--1--etc-------|
G|--------------2-----------------0-0-0--0-0--2--2-2-2--0-0--0--etc-------|
D|-----------------------2--------2-2-2--0-0--2--2-2-2--0-0--2--etc-------|
A|--------------------------3-----3-3-3--2-2--0--0-0-0--2-2--3--etc-------|
E|--------------------3------------------3-3------------3-3-----etc-------|

            
            
Suggest correction
Creating personal tab
Creating personal tab
You can edit any tab online and save it as your Personal.

You can edit, replace or remove any tab part or add personal notes – all changes will be seen only by you.

Personal tabs can be accessed anytime from any device, even offline.
Learn more »
comments
print report bad tab
1 comment total.
+2 reply
IjonTichy 10 Nov 11, 2014 10:06 PM

At least on the album-version it's

e|----3---0---------------------
B|------3----1-----1------------
G|--------------2---------------
D|-----------------------2------
A|--------------------------3---
E|--------------------3---------

guest
You may want to rate the tab now too:
select rating
Wanna post a correction for this tab? Suggest correction