Oops, an error
Loading. Please wait.

A Fool Such As I Bass Tab

version 1
version 1

Whole song

Interactive

103 views 1 this week
no commentswrite comment
1 2 3 4 5
2 more votes to show rating
add to favorites
launch autoscroll
font size
0
reset
guitar tuner
Autoscroll
slow
fast
+/-
esc
set tempo
stop
Help us to improve Ultimate-Guitar.com Take our survey!
×
Author
Difficulty
intermediate
[Intro]: "Now and then, there's a fool..."
G|----------------------------------------------------------------|
D|----5-2--0----6-9-6-9--------------5------2---5----5----5-------|
A|-3---------7-----------8--8--5--3----5-3----3----5---3-----3--5-|
E|----------------------------------------------------------------|


[Verse 1]: "Pardon me, if I'm sentimental..."
G|--------------------------------------------------------------------------------|
D|------2---0-----9-6-9--------------5-2-------2---5--2-1-0--7----5-5-3-3-2-2-0-0-|   
A|-3--3---3----7---------8--8--5--3------5-3-----3-------------5------------------|
E|--------------------------------------------------------------------------------|

"When you're gone..."
G|-----------------------------------------------------------5-5-3-2-0-|
D|----5--0----9-6-9--------------5------5--5--2---5-------3------------|
A|-3-------7---------8--8--5--3----5-3----------3----3--5--------------| 
E|---------------------------------------------------------------------|


[Bridge]: "Now and then there's a fool..."
G|-----2-5------2-5----------------------4-7-4------------------------------|
D|-3-5------3-5--------2-5-2----2-5-2--5----------4-7-4--5-5------5-5-3-2-0-|
A|-------------------3--------3-----------------5------------5-5------------|   
E|--------------------------------------------------------------------------|


[Verse 2]: "I'm a fool, but I'll love you dear..."
G|-----------------------------------------------------------5-5-3-2-0-|
D|----5----0----9-6-9--------------5------2---5----5----3--------------| 
A|-3----3----7---------8--8--5--3----5-3----3----5---3----5------------|
E|---------------------------------------------------------------------|


[Bridge 2]: 
G|-----------------------------2-----------------2----------5-4-2----------------|
D|---7-5-0----9-6----------------5-2-5----2-5-2----5-2-5----------3--5-5-3-3-2-0-| 
A|-3--------7-----7--8-7-5-4-3----------3-----------------5----------------------|
E|-------------------------------------------------------------------------------|

G|-----------------------------------------------------------5-5-3-2-0-|
D|----5----0----9-6-9--------------5------2---5----5----5--------------| 
A|-3----3----7---------8--8--5--3----5-3----3----5---3----3------------|
E|---------------------------------------------------------------------|


[Bridge 3]: "Now and then, there's a fool..."
G|-----2-5------2-5----------------------4-7-4------------------------------|
D|-3-5------3-5--------2-5-2----2-5-2--5----------4-7-4--5-5------5-5-3-2-0-|
A|-------------------3--------3-----------------5------------5-5------------|  
E|--------------------------------------------------------------------------|


[Verse 3]: "I'm a fool, but I'll love you dear..."                  
G|------------------------------------------------------|-2---------------------------|
D|----5--0----9-6-9--------------5------2---5----5----2-|---5-2-5-----2---5----5----2-|
A|-3-------7---------8--8--5--3----5-3----3----5---3----|----------3----3----5---3----|
E|------------------------------------------------------|-----------------------------|
                                                                         x2
Suggest correction
Give kudos to tab author, rate the tab!
1 2 3 4 5
comments
print report bad tab
guest
You may want to rate the tab now too:
select rating
Wanna post a correction for this tab? Suggest correction