Oops, an error
Loading. Please wait.

A Little Less Conversation Tab

version 1
version 1

Whole song

Interactive

25,845 views 180 this week
no commentswrite comment
1 2 3 4 5
x 10
add to favorites
×
Save as Personal and add changes to this tab that will be seen only by you. Learn more ›
×
You can save this tab as Personal to edit and correct it or add notes. All changes will be seen only by you. Learn more »
save as personal
new!
launch autoscroll
font size
0
reset
how to read this tab
guitar tuner
Autoscroll
slow
fast
+/-
esc
set tempo
stop
Author
Elvis Presley - A Little Less Conversation  (Original Version, 1968)

Standard Tunning

[INTRO] (Drums)

[Main Guitar Riff]
e|--------3--------------------|--------3--------------------|
B|--------2--------6s-7--6s-7--|--------2--------6s-7--6s-7--|
G|--------0--------4s-5--4s-5--|--------0--------4s-5--4s-5--|
D|--------2--------------------|--------2--------------------|
A|--0-----0--------------------|--0--0--0--------------------|
E|-----------------------------|-----------------------------|

[Next Riff]
e|----------------------------|
B|----------------------------|
G|-----------4----------------|
D|---------5----7--5-------5--|
A|--0--6-7------------6--7----|
E|----------------------------|

  A little less conversation...                            
e|--------3--------------------|--------3--------------------|
B|--------2--------6s-7--6s-7--|--------2--------6s-7--6s-7--|
G|--------0--------4s-5--4s-5--|--------0--------4s-5--4s-5--|
D|--------2--------------------|--------2--------------------|
A|--0-----0--------------------|--0--0--0--------------------|
E|-----------------------------|-----------------------------|

Play [Main Riff] till this next part

A little more bite a little less bark                                             
e|--------0-----------------|
B|--------2---------1--1----|
G|--------2---------0--0----|
D|--------2---------2--2----|
A|--0--0--0---------3--3----|
E|--------------------------|

A little less fight and a little more spark  
e|--------3--------3--3-----|
B|--------2--------3--3-----|
G|--------3--------0--0-----|
D|--0--0--0--------0--0-----|
A|-----------------2--2-----|
E|-----------------3--3-----|

Close your mouth and open up your heart and baby satisfy me
e|--------0--------0--0-----|
B|--------2--------0--0-----|
G|--------2--------1--1-----|
D|--------2--------0--0-----|
A|--0--0--0--------2--2-----|
E|-----------------0--0-----|

Satisfy me baby...
e|--------3--------------------|--------3--------------------|
B|--------2--------6s-7--6s-7--|--------2--------6s-7--6s-7--|
G|--------0--------4s-5--4s-5--|--------0--------4s-5--4s-5--|
D|--------2--------------------|--------2--------------------|
A|--0-----0--------------------|--0--0--0--------------------|
E|-----------------------------|-----------------------------|

Return To [Main Riff] and repeat the same above when you get to the same lyrics

 BRIDGE:
 Come on baby I'm tired of talking....             
e|------------------|----------------------------|------------------|----------------------------|
B|------------------|----------------------------|------------------|----------------------------|
G|------------------|-----------4----------------|------------------|-----------4----------------|
D|------------------|---------5----7--5-------5--|------------------|---------5----7--5-------5--|
A|--0---------------|--0--6-7------------6--7----|--0---------------|--0--6-7------------6--7----|
E|------------------|----------------------------|------------------|----------------------------|

  Come On, come on...            
e|-------------------|-------------------|-------------------|
B|-------------------|-------------------|-------------------|
G|-------------------|-------------------|-------------------|
D|-------------------|-------------------|-------------------|
A|--0----------------|--3----------------|--5----------------|
E|-------------------|-------------------|-------------------|

  Don't procrastinate....            
e|--------------------|--------------------|-------------------|
B|--------------------|--------------------|-------------------|
G|--------------------|--------------------|-------------------|
D|--------------------|--------------------|-------------------|
A|--------------------|-----------5--------|--7----------------|
E|--0--------4--------|--7-----------------|-------------------|

Finally you repeat the same

I think that's all you need to now.
Suggest correction
comments
print report bad tab
guest
You may want to rate the tab now too:
select rating
Wanna post a correction for this tab? Suggest correction