Oops, an error
Loading. Please wait.

Cant Help Falling In Love tab

version 2
version 2

Whole song

Video

42,725 views 18 this week
1 commentread comment
1 2 3 4 5
x 4
add to favorites
×
Save as Personal and add changes to this tab that will be seen only by you. Learn more ›
×
You can save this tab as Personal to edit and correct it or add notes. All changes will be seen only by you. Learn more »
launch autoscroll
font size
0
reset
how to read this tab
guitar tuner
edit
Autoscroll
slow
fast
+/-
esc
set tempo
stop
Author
Difficulty
Tabbers playing skills
intermediate
intermediate +
Chords:

      G         Bm        Am        D7       C    F#7/E    E7    Am7     Em

e|--3(7)--||--2(7)--||--5(8)--||--5(2)--||--0--||--0--||--0--||--0--||--3--||
B|--0(0)--||--3(7)--||--5(5)--||--3(1)--||--1--||--x--||--3--||--1--||--0--||
G|--0(0)--||--4(7)--||--5(5)--||--5(2)--||--0--||--3--||--4--||--0--||--0--||
D|--x(x)--||--4(x)--||--x(x)--||--0(0)--||--x--||--4--||--x--||--2--||--x--||
A|--x(x)--||--2(x)--||--0(0)--||--x(x)--||--3--||--x--||--x--||--0--||--x--||
E|--3(3)--||--x(7)--||--x(x)--||--x(x)--||--x--||--0--||--0--||--x--||--0--||

                                                                   


      G           Bm             G                        
      E  E  E  E  E  E  E  E     E  E  E  E  Q    E  E    
e|---3-----------7-----------|--3----------------5--7S--|
B|---------0-----------7-----|--------0-----------------|
G|*-----0-----0-----7-----7--|-----0-----0--------------|
D|*--------------------------|--------------------------|
A|---------------------------|--------------------------|
E|---3-----------7-----------|--0-----------0-----------|


    Am          G              D7                       C           D7           
    E  E  E  E  E  E  E  E     E  E  E  E  Q    Q       E  E  E  E  E  E  E  E   
e|--8-----------7-----------|--5---------------------|--0-----------2-----------|
B|--------5-----------0-----|--------3----------3----|--------1-----------1-----|
G|-----5-----5-----0-----0--|-----5-----5------------|-----0-----0-----2-----2--|
D|--------------------------|--0-----------0---------|--------------0-----------|
A|--0-----------------------|------------------------|--3-----------------------|
E|--------------3-----------|------------------------|--------------------------|


    G           Am                 G           D7           
                ^                                           
                |----3----|                                 
    E  E  E  E  Q    Q    Q        E  E  E  E  E  E  E  E   
e|--3-----------5----7----8S----|--7-----------5-----------|
B|--------0-----5---------------|--------0-----------3-----|
G|-----0-----0--5---------------|-----0-----0-----5-----5--|
D|------------------------------|--------------0-----------|
A|--------------0---------------|--------------------------|
E|--0---------------------------|--3-----------------------|


    G                         Bm          F#7/E           
                ^                                         
    E  E  E  E  H             E  E  E  E  E     E  E  E   
e|--3-----------3---------||-----------2--0--------------|
B|--------0-----0---------||--------3--------------------|
G|-----0-----0--0--------*||-----4--------------3--3--3--|
D|-----------------------*||--4-----------------4--4--4--|
A|------------------------||--2--------------------------|
E|--3-----------3---------||--------------0--------------|


    Bm          F#7/E             Bm        E7           
                                  ^                      
    E  E  E  E  E     E  E  E     Q    Q    E  E  E  E   
e|-----------2--0--------------|------------------------|
B|--------3--------------------|--3----3----------3-----|
G|-----4--------------3--3--3--|--4------------4-----4--|
D|--4-----------------4--4--4--|--4---------------------|
A|--2--------------------------|--2---------------------|
E|--------------0--------------|------------0-----------|


    Am7          D7           
    E   E  E  E  E  E  E  E   
e|---------------------2-----|
B|--1------------------1-----|
G|---------0--------2-----2--|
D|------2-----2--0-----------|
A|--0------------------------|
E|---------------------------|


    Em                                                 
    T  T T T T T T T T T T T T T T T T T T T T T T T   
e|-----3-3-3---3-3-3---3-3-3---3-3-3---3-3-3---3-3-3S-|
B|-------------------0---------------0----------------|
G|-----------0---------------0---------------0--------|
D|----------------------------------------------------|
A|----------------------------------------------------|
E|--0-------------------------------------------------|


    Bm                                                 
    T  T T T T T T T T T T T T T T T T T T T T T T T   
e|-----7-7-7---7-7-7---7-7-7---7-7-7---7-7-7---7-7-7S-|
B|-------------------7---------------7----------------|
G|-----------7---------------7---------------7--------|
D|----------------------------------------------------|
A|----------------------------------------------------|
E|--7-------------------------------------------------|


    Em                                                              
    T  T T T T T T T T T T T T T T T T T T T T T T T    Q    E  E   
e|-----3-3-3---3-3-3---3-3-3---3-3-3---3-3-3---3-3-3-|-------5--7--|
B|-------------------0---------------0---------------|-------------|
G|-----------0---------------0---------------0-------|-------------|
D|---------------------------------------------------|-------------|
A|---------------------------------------------------|-------------|
E|--0------------------------------------------------|--0----------|


    Am                                                 
    T  T T T T T T T T T T T T T T T T T T T T T T T   
e|-----8-8-8---8-8-8---8-8-8---8-8-8---8-8-8---8-8-8S-|
B|-------------------5---------------5----------------|
G|-----------5---------------5---------------5--------|
D|----------------------------------------------------|
A|--0-------------------------------------------------|
E|----------------------------------------------------|


    G                                                 
    T T T T T T T T T T T T T T T T T T T T T T T T   
e|----7-7-7---7-7-7---7-7-7---7-7-7---7-7-7---7-7-7S-|
B|------------------0---------------0----------------|
G|----------0---------------0---------------0--------|
D|---------------------------------------------------|
A|---------------------------------------------------|
E|--3------------------------------------------------|


    D7                                                             
    T  T T T T T T T T T T T T T T T T T T T T T T T    Q    Q     
e|-----5-5-5---5-5-5---5-5-5---5-5-5---5-5-5---5-5-5-|------------|
B|-------------------3---------------3---------------|-------3----|
G|-----------5---------------5---------------5-------|------------|
D|--0------------------------------------------------|--0---------|
A|---------------------------------------------------|------------|
E|---------------------------------------------------|------------|


    C                                                
    T T T T T T T T T T T T T T T T T T T T T T T T  
e|----0-0-0---0-0-0---0-0-0---0-0-0---0-0-0---0-0-0-|
B|------------------1---------------1---------------|
G|----------0---------------0---------------0-------|
D|--------------------------------------------------|
A|--3-----------------------------------------------|
E|--------------------------------------------------|


    D7                                                 
    T  T T T T T T T T T T T T T T T T T T T T T T T   
e|-----2-2-2---2-2-2---2-2-2---2-2-2---2-2-2---2-2-2S-|
B|-------------------1---------------1----------------|
G|-----------2---------------2---------------2--------|
D|--0-------------------------------------------------|
A|----------------------------------------------------|
E|----------------------------------------------------|


    Em                                                  Am               
                                                        ^                
    T  T T T T T T T T T T T T T T T T T T T T T T T    Q    Q    Q      
e|-----3-3-3---3-3-3---3-3-3---3-3-3---3-3-3---3-3-3-|--5----7----8S----|
B|-------------------0---------------0---------------|--5---------------|
G|-----------0---------------0---------------0-------|--5---------------|
D|---------------------------------------------------|------------------|
A|---------------------------------------------------|--0---------------|
E|--0------------------------------------------------|------------------|


    G                                                 
    T T T T T T T T T T T T T T T T T T T T T T T T   
e|----7-7-7---7-7-7---7-7-7---7-7-7---7-7-7---7-7-7S-|
B|------------------0---------------0----------------|
G|----------0---------------0---------------0--------|
D|---------------------------------------------------|
A|---------------------------------------------------|
E|--3------------------------------------------------|


    D7                                                 
    T  T T T T T T T T T T T T T T T T T T T T T T T   
e|-----5-5-5---5-5-5---5-5-5---5-5-5---5-5-5---5-5-5S-|
B|-------------------3---------------3----------------|
G|-----------5---------------5---------------5--------|
D|--0-------------------------------------------------|
A|----------------------------------------------------|
E|----------------------------------------------------|


    G                                                                 
                                                       ^              
    T T T T T T T T T T T T T T T T T T T T T T T T    H.             
e|----3-3-3---3-3-3---3-3-3---3-3-3---3-3-3---3-3-3-|--3------------||
B|------------------0---------------0---------------|--0------------||
G|----------0---------------0---------------0-------|--0------------||
D|--------------------------------------------------|---------------||
A|--------------------------------------------------|---------------||
E|--3-----------------------------------------------|--3------------||


************************************

| x    Dead note
| (n)  Ghost note

************************************

            
            
Suggest correction
Creating personal tab
Creating personal tab
You can edit any tab online and save it as your Personal.

You can edit, replace or remove any tab part or add personal notes – all changes will be seen only by you.

Personal tabs can be accessed anytime from any device, even offline.
Learn more »
comments
print report bad tab
1 comment total.
0 reply
FL_Bob2002 578 May 20, 2015 03:23 PM

didn't like this contribution

guest
You may want to rate the tab now too:
select rating
Wanna post a correction for this tab? Suggest correction