Oops, an error
Loading. Please wait.

Cant Help Falling In Love tab

version 4
version 4

Whole song

Video

1,444 views 138 this week
1 commentread comment
1 2 3 4 5
x 6
add to favorites
×
Save as Personal and add changes to this tab that will be seen only by you. Learn more ›
×
You can save this tab as Personal to edit and correct it or add notes. All changes will be seen only by you. Learn more »
launch autoscroll
font size
0
reset
how to read this tab
guitar tuner
edit
Autoscroll
slow
fast
+/-
esc
set tempo
stop
About this tab version
This is an original fingerstyle version created for solo guitar, primarily acoustic. Was this info helpful? Yes No
Can’t Help Falling in Love (Fingerstyle) ~ Elvis Presley

Capo 2

This is a fingerstyle version I made, hope you like it!

[Intro]

     C            G            C
E||------------------------------------------0-----3---------|
B||---------1------------3------------1--------1-----1-------|
G||-------0---0--------0---0--------0---0--------0-----0-----|
D||-----2-------2----0-------0----2-------2------------------|
A||---3-------------------------3----------------------------|
E||----------------3-----------------------------------------|


[Verse]

      C             Em            Am
E||-----------------3-----3----------------------------------|
B||---1------1----------0---0-----1-----1------------1-------|
G||--------0---0------0-------0-------2---2--------2---------|
D||------2-------2------------------2-------2----2-----------|
A||---3---------------------------0--------------------------|
E||-----------------0--------------------------3-------------|

           F            C            G
E||----0---1-----1------0-----0------------------------------|
B||--3---------1---1--------1---1----3-----3-----------3-----|
G||----------2-------2----0-------0------0---0-------0---0---|
D||------------------------------------0-------0---0-------0-|
A||---------------------3------------------------------------|
E||--------1-------------------------3-----------3-----------|


[Chorus]

    F            G            Am            F
E||------------------------------------------1-0-1-|
B||--1-----1------3-----3------1-----1-------1-----|
G||------2---2--------0---0--------2---2-----2-----|
D||----3-------3----0-------0----2-------2---3-----|
A||----------------------------0-------------3-----|
E||--1------------3--------------------------1-----|
     
     C            G            C    
E||--0-----0--------------------------------0-----3--------|
B||------1---1----3-----3------1-----1--------1-----1------|
G||----0-------0------0---0--------0---0--------0-----0----|
D||-----------------0-------0----2-------2-----------------|
A||--3-------------------------3---------------------------|
E||---------------3----------------------------------------|


[Bridge]

     Em           Bm7
E||--------0-2-3--2-----2-----------| (x3)
B||------0------------4---4---------|
G||----0------------2-------2-------|
D||---------------------------------|
A||---------------2-----------------|
E||--0------------------------------|

     Em                        Dm           G
E||--0-----0------------0------1-----1------------3--------|
B||------0---0----2-------2--------3---3----3---3---3------|
G||----0-------0------0-----0----2-------2----0-------0----|
D||-----------------2----------0---------------------------|
A||---------------0----------------------------------------|
E||--0--------------------------------------3--------------|


Song Order:

Intro, Verse, Chorus, Verse, Chorus, Bridge, Verse, Chorus
Suggest correction
Creating personal tab
Creating personal tab
You can edit any tab online and save it as your Personal.

You can edit, replace or remove any tab part or add personal notes – all changes will be seen only by you.

Personal tabs can be accessed anytime from any device, even offline.
Learn more »
comments
print report bad tab
1 comment total.
0 reply
SuperHans30 139 Sep 03, 2016 07:08 AM, edited on October 12 2016, 01:57 pm

Beautiful version, a joy to play! Can you put the chords in the second line of the bridge though?

guest
You may want to rate the tab now too:
select rating
Wanna post a correction for this tab? Suggest correction