Oops, an error
Loading. Please wait.

Cant Help Falling In Love Tab

version 5
version 5

Whole song

Video

163 views 9 this week
no commentswrite comment
1 2 3 4 5
3 more votes to show rating
add to favorites
launch autoscroll
font size
0
reset
how to read this tab
guitar tuner
Autoscroll
slow
fast
+/-
esc
set tempo
stop
Help us to improve Ultimate-Guitar.com Take our survey!
×
Author
Difficulty
intermediate
Can’t Help Falling In Love 
Elvis Presley

Tabs written and arranged by Edwin-E (in YouTube)
Blog: http://guitarplucking.blogspot.com
Facebook Page: http://facebook.com/EdwinEGuitar

Video Demo:  https://youtu.be/sb4XyYI1_yQ

[Verse]
 
E|-----3-----|
B|--1-----1--|
G|-----------|
D|-----------|
A|--3-----0--|
E|-----3-----|
  C    G   Am
 Wise men say 

E|-----0--1--0-----|
B|--3-----------3--|
G|-----------------|
D|-----------------|
A|-----------3-----|
E|--------1-----3--|
       F     C   G
 Only fools rush in

E|--------------|
B|--------0--1--|
G|--0--2--------|
D|--------------|
A|-----------0--|
E|-----1--3-----|
    F  G    Am 
But I can't help 

E|-----0--1--0--------------0-----------------0--------|
B|--3-----------3--1-----------1-----------------1-----|
G|-----------------------0--------0--------0--------0--|
D|--------------------2-----------------2--------------|
A|-----------3-----3-----------------3-----------------|
E|--1-----------3--------------------------------------|
  F          C    G    C   
 Falling in love with you

E|-----------0--------3--------------------------0-----------------0--|
B|--1-----------1--------------0--------1-----------1-----------------|
G|--------0--------0--------------0-----------2--------2--------2-----|
D|-----2--------------------0--------0-----2-----------------2--------|
A|--3--------------------2--------------0-----------------0-----------|
E|--------------------3-----------------------------------------------|
   C   G   Am 
 Shall I  stay 

E|-----0--1-----------------0-----------------------0--------3--|
B|--3--------------1-----------------1-----3-----------3--------|
G|--------------------2-----------0-----------------------0-----|
D|--------------3--------3-----2--------2--------0--------------|
A|-----------3--------------3-----------------2-----------------|
E|--------1--------------------------------3--------------------|
          F  C  G
 Could it be a sin?
E|--------------------------------3-----------------0--|
B|--------------1--------0-----------0-----1-----------|
G|--0--2-----------2--------------------0--------2-----|
D|-----------3--------3--------0--------------2--------|
A|--------3-----------------2--------------0-----------|
E|-----1-----------------3-----------------------------|
   F   G    Am 
If I can't help 

E|-----0--1--0--------------------------3-----------------0--------0--|
B|--3-----------------1--------3-----------0-----1-----------1-----1--|
G|-----------------0-----0--------------------0--------0--------0--0--|
D|--------------2-----------2--------0--------------2--------------2--|
A|-----------3--------------------2--------------3-----------------3--|
E|--1--------------------------3--------------------------------------|
  F          C    G    C
 Falling in love with you

[Chorus]

E|-----------0--3--3/7--5-----------|
B|--0----------------------------4--|
G|----------------------------2-----|
D|--------2----------------4--------|
A|-----2----------------2-----------|
E|--0-------------------------------|
 Em              B7
   Like a river flows

E|-----------0--3--3/7--5-----------|
B|--0----------------------------4--|
G|----------------------------2-----|
D|--------2----------------4--------|
A|-----2----------------2-----------|
E|--0-------------------------------|
Em               B7
  Surely to the sea

E|-----------0--3--3/7--5-----------|
B|--0----------------------------4--|
G|----------------------------2-----|
D|--------2----------------4--------|
A|-----2----------------2-----------|
E|--0-------------------------------|
Em               B7
  Darling so it goes

E|--3--------3--------0--0--3--0--1--------3--|
B|--------------0-----2-----------3--3-----0--|
G|-----------------0--0-----------2-----2--0--|
D|--------2-----------2-----------0--------0--|
A|-----2--------------0--------------------2--|
E|--0--------------------------------------3--|
Em            A7             Dm  G
  Some things   are meant to be

[Verse]

E|-----------0--------3--------------------------0-----------------0--|
B|--1-----------1--------------0--------1-----------1-----------------|
G|--------0--------0--------------0-----------2--------2--------2-----|
D|-----2--------------------0--------0-----2-----------------2--------|
A|--3--------------------2--------------0-----------------0-----------|
E|--------------------3-----------------------------------------------|
  C   G   Am 
 Take my hand

E|-----0--1-----------------0-----------------------0--------3--|
B|--3--------------1-----------------1-----3-----------3--------|
G|--------------------2-----------0-----------------------0-----|
D|--------------3--------3-----2--------2--------0--------------|
A|-----------3--------------3-----------------2-----------------|
E|--------1--------------------------------3--------------------|
          F     C    G
 Take my whole life too

E|--------------------------------3-----------------0--|
B|--------------1--------0-----------0-----1-----------|
G|--0--2-----------2--------------------0--------2-----|
D|-----------3--------3--------0--------------2--------|
A|--------3-----------------2--------------0-----------|
E|-----1-----------------3-----------------------------|
    F  G     Am 
For I can't help 

E|-----0--1--0--------------------------3-----------------0--------0--|
B|--3-----------------1--------3-----------0-----1-----------1-----1--|
G|-----------------0-----0--------------------0--------0--------0--0--|
D|--------------2-----------2--------0--------------2--------------2--|
A|-----------3--------------------2--------------3-----------------3--|
E|--1--------------------------3--------------------------------------|
  F          C    G    C
 Falling in love with you

E|--------------------------------3-----------------0--|
B|--------------1--------0-----------0-----1-----------|
G|--0--2-----------2--------------------0--------2-----|
D|-----------3--------3--------0--------------2--------|
A|--------3-----------------2--------------0-----------|
E|-----1-----------------3-----------------------------|
     F  G     Am
 For I can't help 

E|-----0--1--0--------------------------3-----------------0--------0--|
B|--3-----------------1--------3-----------0-----1-----------1-----1--|
G|-----------------0-----0--------------------0--------0--------0--0--|
D|--------------2-----------2--------0--------------2--------------2--|
A|-----------3--------------------2--------------3-----------------3--|
E|--1--------------------------3--------------------------------------|
  F          C    G    C
 Falling in love with you

***************
/ Slide

***************
Suggest correction
Give kudos to tab author, rate the tab!
1 2 3 4 5
comments
print report bad tab
guest
You may want to rate the tab now too:
select rating
Wanna post a correction for this tab? Suggest correction