Oops, an error
Loading. Please wait.
We have an official Heartbreak Hotel tab made by UG professional guitarists. Check out the tab »
×
418 views 30 this week
no commentswrite comment
1 2 3 4 5
3 more votes to show rating
add to favorites
×
Save as Personal and add changes to this tab that will be seen only by you. Learn more ›
×
You can save this tab as Personal to edit and correct it or add notes. All changes will be seen only by you. Learn more »
launch autoscroll
font size
0
reset
how to read this tab
guitar tuner
backing track
0:00
0:00
edit
Autoscroll
slow
fast
+/-
esc
set tempo
stop
Author
Difficulty
#-------------------------------PLEASE NOTE-------------------------------------#
# This file is the author's own work and represents their interpretation of the #
# song. You may only use this file for private study, scholarship, or research. #
#-------------------------------------------------------------------------------#

Simple Version of Heartbreak Hotel by Elvis Presley

This is a simplified version for beginners. This version is less intense on fingers 
and there are no power chords. This isn't for you if you want an exact version of
Heartbreak Hotel. This is good for easy playing and learning.

E Chords = Upstroke

VERSE
                             E                            E
e|--------------------------------------------------------0--0------------------|
B|---------------------------0--0-------------------------0--0------------------|
G|---------------------------1--1-------------------------1--1------------------|
D|---------------------------2--2-------------------------2--2------------------|
A|---------------------------2--2-------------------------2--2------------------|
E|---------------------------0--0-------------------------0--0-----0-2-3-4------|

End of VERSE

CHORUS
                        
e|------------------------------------------------------------------------------|
B|------------------------------------------------------------------------------|
G|------------------------------------------------------------------------------|
D|--2-2-4-4--2-2-4-4--2-2-4-4--2-2-4-4---4-4-6-6--4-4-6-6-----------------------|
A|----------------------------------------------------------2-2-4-4--2-2-4-4--2-|
E|------------------------------------------------------------------------------|
  
End of CHORUS

SOLO   (This is translated down the neck for easy playing)

e|-0-0-0-0-----0----0-0-0-0-------0-0-0-0-----0---------------------------------|
B|-0-0-0-0-0-3------0-0-0-0-0-3---0-0-0-0-0-3-----------------------------------|
G|------------------------------------------------------------------------------|
D|------------------------------------------------------------------------------|
A|------------------------------------------------------------------------------|
E|------------------------------------------------------------------------------|



e|-0-0-0-0-0-0-0-0-0-0-0-0-0-0-0-0----------------------------------------------|
B|-0-0-0-0-0-0-0-0-0-0-0-0-0-0-0-0----------------------------------------------|
G|------------------------------------------------------------------------------|
D|------------------------------------------------------------------------------|
A|------------------------------------------------------------------------------|
E|------------------------------------------------------------------------------|

End of SOLO
Whilst Piano solo play the CHORUS

VERSE Part 2 After Solo the ending changes

             E                 E
e|-----------0-0---------------0-0--------0-0---0-0---0-0--0-0-----------------|
B|-----------0-0---------------0-0--------0-0---0-0---0-0--0-0-----------------|
G|-----------1-1---------------1-1------2b----2b----2b----2b-------------------|
D|-----------2-2---------------2-2---------------------------------------------|
A|-----------2-2---------------2-2---------------------------------------------|
E|-----------0-0---------------0-0---------------------------------------------|

End of VERSE Part 2

Finish Song by playing the Chorus once more. You now would have played a simplified 
version of Heartbreak Hotel by Elvis Presley

************************************

| x   Dead note
| g   Grace note
| (n) Ghost note
| h   Hammer-on
| p   Pull-off
| r   Release
| >   Accented note
| t   Tapping
| b   Bend

************************************

            
            
Suggest correction
Creating personal tab
Creating personal tab
You can edit any tab online and save it as your Personal.

You can edit, replace or remove any tab part or add personal notes – all changes will be seen only by you.

Personal tabs can be accessed anytime from any device, even offline.
Learn more »
Give kudos to tab author, rate the tab!
1 2 3 4 5
comments
print report bad tab
guest
You may want to rate the tab now too:
select rating
Wanna post a correction for this tab? Suggest correction