Oops, an error
Loading. Please wait.

How Great Thou Art Tab

version 1
version 1

Whole song

25,995 views 21 this week
3 commentsread comments
1 2 3 4 5
x 16
add to favorites
launch autoscroll
font size
0
reset
how to read this tab
guitar tuner
Autoscroll
slow
fast
+/-
esc
set tempo
stop
Help us to improve Ultimate-Guitar.com Take our survey!
×
Author
Capo
3rd fret
How Great Thou Art

Capo  3rd Fret
Intro:
e-------------------------------------------------------------------------|
b------3----2----3-----5-----5-----8-----2-----3----8----7----5-----3-----|
g-------------------------------------------------------------------------|
d-------------------------------------------------------------------------|
a-------------------------------------------------------------------------|
E-------------------------------------------------------------------------|

1st verse:
D         D
Oooh Lord, my God
D        A      G
Why I in awesome wonder
G          A
Considered all
   A           A          D
The world thy hands have made
   D        D
I see the stars
   D          A       G
I hear the rolling thunder
  G          A
Thy power throughout
   G       A      D
The universe displayed
Chorus:
  D         D
Then sings my soul
A        G       D
My savior God to thee
 D             A
How great thou art
 A             D
How great thou art
 D           D
Then sings my soul
A        G       D
My savior God to thee
 D            Em
How great thou art
 A             D
How great thou art
(Repeat Intro)
(*The rest of the song is an octave higher, so move the capo down to the
fourth fret*)
2nd Verse:
  D              D
When Christ shall come
  D          A       G
With shouts of acclaimation
  G          A
And take me home
  A                      D
What joy shall fill my heart
  D           D
Then I shall bow
  D     A     G
In humble adoration
  G           A       G         A           D
And there proclaim, my God, how great thou art
Chorus:
 D            D
Then sings my soul
A        G       D
My savior God to thee
D              A
How great thou art
A             D
How great thou art
 D             D
Then sings my soul
A        G       D
My savior God to thee
A              Em
How great thou art
A              Bm   A   G
How great thou art
  A            Em     A
How great thou art
No Chord                        No Chord             D              D
How---Great-----------------------Thou-----------Art----------------------------

D                       D
---------------------------------------------
Suggest correction
comments
print report bad tab
3 comments total.
0 reply
<Guitar4God> 386 Jul 31, 2007 01:10 PM

Sorry, I just don't feel it

-1 reply
austie24 30 Feb 13, 2009 04:14 PM

Dude I posted this same tab. It should be up in two days. This version ****in sucks

0 reply
austie24 30 Feb 13, 2009 04:32 PM

intro
=====
e|---------------------------------------------|
B|-0-----------------------0-1-----------------|
G|---2-0---0------0---0-2---------0------------|
D|-0-----4---2-0----4----------4---------------|
A|-----3-------2--2-0-2-3------3--3--3-2-0-2---|
E|-------------------------------------------3-|

Thats how it should be played

guest
You may want to rate the tab now too:
select rating
Wanna post a correction for this tab? Suggest correction