Oops, an error
Loading. Please wait.

In The Ghetto Bass Tab

version 1
version 1

Whole song

Interactive

34 views 12 this week
no commentswrite comment
1 2 3 4 5
3 more votes to show rating
add to favorites
launch autoscroll
font size
0
reset
guitar tuner
Autoscroll
slow
fast
+/-
esc
set tempo
stop
Help us to improve Ultimate-Guitar.com Take our survey!
×
Author
Difficulty
Intro :
G|---------------------------------|---------------------------------|
D|---------------------------------|---------------------------------|
A|---------------------------------|---------------------------------|
E|6---------------------------6-6--|6--------------------------------|

Verse 1 :
G|---------------------------------|---------------------------------|
D|---------------------------------|---------------------------------|
A|---------------------------------|---------------------------------|
E|6---------------------------6-6--|6--------------------------------|

G|---------------------------------|---------------------------------|
D|------------------------------3--|------------5---3----------------|
A|5---------------5-----------5----|6--------------------------------|
E|---------------------------------|---------------------------------|

G|---------------------------------|---------------------------------|
D|---------------------------------|---------------------------------|
A|---------------------------------|---------------------------------|
E|6---------------------------6-6--|6--------------------------------|

G|---------------------------------|---------------------------------|
D|---------------------------------|---------------------------------|
A|---------------------------------|---------------------------------|
E|6---------------------------6-6--|6--------------------------------|

G|---------------------------------|---------------------------------|
D|------------------------------3--|------------5---3----------------|
A|5---------------5-----------5----|6--------------------------------|
E|---------------------------------|---------------------------------|

G|---------------------------------|---------------------------------|
D|---------------------------------|---------------------------------|
A|---------------------------------|----------------------------5----|
E|6---------------6-----------6-6--|6---------------6----------------|

Bridge :
G|---------------------------------|---------------------------------|
D|---------------------------------|---------------------------------|
A|8-----8-8-----8-8-----8-8---8-7--|6-----6-6-----6------------------|
E|---------------------------------|----------------6-----6-6-----6--|

G|---------------------------------|---------------------------------|
D|---------------------------------|---------------------------------|
A|6-------6-------8-------8---8-7--|---------------------------------|
E|---------------------------------|6-----6-6-----6-6-6-----6-6------|

G|---------------------------------|---------------------------------|
D|---------------------------------|---------------------------------|
A|8-----8-8-----8-8-----8-8---8-7--|6-----6-6-----6------------------|
E|---------------------------------|----------------6-----6-6-----6--|

G|---------------------------------|---------------------------------|
D|---------------------------------|---------------------------------|
A|6---------------6----------------|6--------------------------------|
E|---------------------------------|----------------1----------------|
      *
G|-----------------|---------------------------------|
D|-----------------|---------------------------------|* 4 bar instead of 8
A|-----------------|---------------------------------|
E|-----------------|----------------------------6-6--|

Verse 2 :
G|---------------------------------|---------------------------------|
D|---------------------------------|---------------------------------|
A|---------------------------------|5---------------5-----------5----|
E|6---------------------------6----|---------------------------------|

G|---------------------------------|---------------------------------|
D|---------------------------------|---------------------------------|
A|---------------------------------|---------------------------------|
E|---------------------------------|---------------------------------|

G|---------------------------------|---------------------------------|
D|---------------------------------|---------------------------------|
A|6-----------6---8-----------8-7--|---------------------------------|
E|---------------------------------|6---------------6-----------6-6--|

G|---------------------------------|---------------------------------|
D|---------------------------------|---------------------------------|
A|---------------------------------|---------------------------------|
E|6---------------6-----------6-6--|6---------------6----------------|

G|---------------------------------|---------------------------------|
D|---------------------------------|---------------------------------|
A|---------------------------------|5---------------5----------------|
E|6---------------6-----------6----|---------------------------------|

G|---------------------------------|---------------------------------|
D|---------------------------------|---------------------------------|
A|6-----------6---8-----------8----|---------------------------------|
E|---------------------------------|6---------------6-------------6--|

G|---------------------------------|
D|---------------------------------|
A|---------------------------------|
E|6--------------------------------|

Bridge :
G|---------------------------------|---------------------------------|
D|---------------------------------|---------------------------------|
A|8-----8-8-----8-8-----8-8---8-7--|6-----6-6-----6------------------|
E|---------------------------------|----------------6-----6-6-----6--|

G|---------------------------------|---------------------------------|
D|---------------------------------|---------------------------------|
A|6-------6-------8-------8--------|3--------------------------------|
E|---------------------------------|---------------------------------|

G|---------------------------------|---------------------------------|
D|---------------------------------|---------------------------------|
A|---------------------------------|---------------------------------|
E|---------------------------------|----------------------------6-6--|

Verse 3 :
G|---------------------------------|---------------------------------|
D|---------------------------------|---------------------------------|
A|---------------------------------|5---------------5-----------5----|
E|6---------------------------6-6--|---------------------------------|

G|---------------------------------|---------------------------------|
D|---------------------------------|---------------------------------|
A|6-----------6---8-----------8-7--|---------------------------------|
E|---------------------------------|6---------------6-----------6-6--|

G|---------------------------------|---------------------------------|
D|---------------------------------|---------------------------------|
A|---------------------------------|---------------------------------|
E|6---------------6-----------6-6--|6---------------6-----------6-6--|

G|---------------------------------|---------------------------------|
D|---------------------------------|---------------------------------|
A|---------------------------------|5---------------5----------------|
E|6---------------6-----------6----|---------------------------------|

G|---------------------------------|---------------------------------|
D|---------------------------------|---------------------------------|
A|6---------------8----------------|---------------------------------|
E|---------------------------------|----------------------------6-6--|

G|---------------------------------|---------------------------------|
D|---------------------------------|---------------------------------|
A|---------------------------------|---------------------------------|
E|6-------------6-6-----------6----|6---------------6-----------6-6--|

Outro :
G|---------------------------------|---------------------------------|
D|---------------------------------|---------------------------------|
A|---------------------------------|---------------------------------|
E|6-------------6-6-----------6-6--|6-------------6-6-----------6-6--|
Suggest correction
Give kudos to tab author, rate the tab!
1 2 3 4 5
comments
print report bad tab
guest
You may want to rate the tab now too:
select rating
Wanna post a correction for this tab? Suggest correction